PrimaNota.ru - самый крупный в мире бесплатный архив песенных текстов, аккордов, табулатур и нот


Jools Holland - The Harder They Come Live - бас-таба, видео

Регистрация Запомнить меня
Войти через:  Facebook Google Twitter Vk Yandex Mail.ru

Jools Holland - The Harder They Come Live - бас-таба, видео

Печатать
Просмотров: 97
The Harder They Come
Live track from Jools Holland and his Orchestra from a BBC New Year's
Eve broadcast with Jimmy Cliff on vocals. Tab by bass50611
My tab more or less as per this recording. This is a tremendous song,
From a tremendous Orchestra and singer
Different key and faster beat than Jimmy Cliff's original recording.
Any comments its bass254@btinternet.com

Intro:
   .    .    .    .    .    .        .
G|-------------------------------------|
D|-------------------------------------|
A|-5-------------------5---------------|
E|------5----3----5---------5----3---3-|

Verse:                             (PLAY THIS x2)
       .          .           .           .
G|-----------------------------------------------|
D|-----7----7-----7----7------5----5------5----5-|
A|---7----7-----7----7------5----5------5----5---|
E|-5----------5-----------3-----------3----------|

Pre-Chorus:
       .           .           .           .
G|------------------------------------------------|
D|-----4----4------4----4------9----9------9----9-|
A|---4----4------4----4------9----9------9----9---|
E|-2-----------2-----------7-----------7----------|

Chorus:                       (PLAY THIS x2)
      .          .            .        .
G|------------------------------------------|
D|----------------------------7--7-----7--7-|
A|----7----7-----5----5----55---5---55---5--|
E|-55----5----33----3-----------------------|

REPEAT VERSE, PRE-CHORUS & CHORUS:

REPEAT INTRO x2:

REPEAT VERSE, PRE-CHORUS:

REPEAT CHORUS x4:

Outro:
   .    .    .    .    .    .    .
G|-------------------------------------------------------------------------|
D|-------------------------------------------------------------------------|
A|-5-------------------5---------------5-5-5-5-5-5-5-5---5-5-5-5-5-5-5-5---|
E|------5----3----5---------5----3-----------------------------------------|
Добавлено: 12.06.2015
Другие материалы по этой песне:
  • Аккорды и текст

Страница создана 12.06.2015
http://primanota.ru/jools-holland/harder-they-come-live-chords.htm
Привет, Гость.
Предлагаем пройти революционный курс по гитаре.
Подарок от PrimaNota.Ru, забирай!