PrimaNota.ru - самый крупный в мире бесплатный архив песенных текстов, аккордов, табулатур и нот


Jonsi - Where No One Goes - таба, видео

Регистрация Запомнить меня
Войти через:  Facebook Google Twitter Vk Yandex Mail.ru

Jonsi - Where No One Goes - таба, видео

Печатать
Просмотров: 181
-------------------------------------------------------------------------------
                             Where no one goes - jonsi
-------------------------------------------------------------------------------
Tabbed by:Kekkowolf99
E-mail:kekkowolf99@gmail.com

Tuning: capo on 2
        i hope it likes you, if you want to correct it, please submit me an e-mail and i 
will correct it

e|-------0------------------------|------------------------------------------|
B|-3---3---2--2-3-0---------------|------------------------------------------|
G|---2-------2-----2-2-0-0--------|------------------------------------------|
D|-0-----------------------4-2-0--|------------------------------------------|
A|--------------------------------|------------------------------------------|
E|--------------------------------|------------------------------------------|

e|---5-5-------5-5-----------------0-----------------------------------------|
B|-------3-3-3-----3-3-3--5--3---3---2---2-3-0-------------------------------|
G|-----------------------------2-------2-------2-2-0-0-----------------------|
D|---------------------------0-------------------------4-2-0-----------------|
A|---------------------------------------------------------------------------|
E|---------------------------------------------------------------------------|

e|---5-5----------3-2--------0-----------------------------------------------|
B|-------3-3-3--3------3---3---2---2-3-0-------------------------------------|
G|-----------------------2-------2-------2-2-0-0-----------------------------|
D|---------------------0-------------------------4-2-0-----------------------|
A|---------------------------------------------------------------------------|
E|---------------------------------------------------------------------------|

e|-----------------------2-0----0-2-3-5---0-2-2-------2-5-0-2-2-----7-5-2-0-0|
B|---3-2----3-2-0--3-2--------3-3-0---3-3-------3-0-3-----------3-0----------|
G|-----2-2----2-2----2-2-2-2--2----------------------------------------------|
D|---0------0------0---------------------------------------------------------|
A|-------0-------------0-----------------------------------------------------|
E|---------------------------------------------------------------------------|

e|--2------------------------------------------------------------------------|
B|----0--0-2-3--5-3-2-0--0----------0-2-3--5-3-2-0----0----------------------|
G|----0--0-0-0--0-0-0-0--2----------0-0-0--0-0-0-0--2------------------------|
D|---------------------------------------------------------------------------|
A|---------------------------------------------------------------------------|
E|---------------------------------------------------------------------------|

e|-------0----------------------|--------------------------------------------|
B|-3---3---2--2-3-0-------------|--------------------------------------------|
G|--2-------2-----2-2-0-0-------|--------------------------------------------|
D|-0-----------------------4-2-0|X2------------------------------------------|
A|------------------------------|--------------------------------------------|
E|------------------------------|--------------------------------------------|

e|---5-5-------5-5-----------------0-----------------------------------------|
B|-------3-3-3-----3-3-3--5--3---3---2---2-3-0-------------------------------|
G|-----------------------------2-------2-------2-2-0-0-----------------------|
D|---------------------------0-------------------------4-2-0-----------------|
A|---------------------------------------------------------------------------|
E|---------------------------------------------------------------------------|

e|---5-5----------3-3--------0-----------------------------------------------|
B|-------3-3-3--3------3---3---2---2-3-0-------------------------------------|
G|-----------------------2-------2-------2-2-0-0-----------------------------|
D|---------------------0-------------------------4-2-0-----------------------|
A|---------------------------------------------------------------------------|
E|---------------------------------------------------------------------------|

e|--------------------0-2--------0-2-3-5---0-2-2-------2-5-0-2-2-----7-5-2-0-|
B|--3-2----3-2-3--3-2-2-2-3--3---3-3-0---3-3-------3-0-3-----------3-0-------|
G|----2-2----2------2--------------------------------------------------------|
D|--0------0---0----------0--0-----------------------------------------------|
A|------0---------0----0-----------------------------------------------------|
E|---------------------------------------------------------------------------|

e|-0-2-----------------------------------------------------------------------|
B|----0--0-2-3--5-3-2-0--0----------0-2-3--5-3-2-0----0----------------------|
G|----0--0-0-0--0-0-0-0--2----------0-0-0--0-0-0-0--2------------------------|
D|---------------------------------------------------------------------------|
A|---------------------------------------------------------------------------|
E|---------------------------------------------------------------------------|

e|--11-12-14-12-11-----------------------------------------------------------|
B|-----------------14-12-14--------------------------------------------------|
G|---------------------------------------------------------------------------|
D|---------------------------------------------------------------------------|
A|---------------------------------------------------------------------------|
E|---------------------------------------------------------------------------|
 


************************************

| /   slide up
| \   slide down
| h   hammer-on
| p   pull-off
| ~   vibrato
| +   harmonic
| x   Mute note
| b   Bend
| pb  Pre-bend
| br  Bend release
| pbr Pre-bend release
| brb Bend release bend

************************************
Добавлено: 06.06.2015
Другие материалы по этой песне:
  • Аккорды и текст

Страница создана 06.06.2015
http://primanota.ru/jonsi/where-no-one-goes-chords.htm
Привет, Гость.
Предлагаем пройти революционный курс по гитаре.
Подарок от PrimaNota.Ru, забирай!