PrimaNota.ru - самый крупный в мире бесплатный архив песенных текстов, аккордов, табулатур и нот


Jono Mccleery - Garden - таба, видео

Регистрация Запомнить меня
Войти через:  Facebook Google Twitter Vk Yandex Mail.ru

Jono Mccleery - Garden - таба, видео

Печатать
Просмотров: 66
-------------------------------------------------------------------------------
                             SONG NAME - Band Name
-------------------------------------------------------------------------------
Tabbed by: Ben Rachmian 
E-mail: benrachmian@gmail.com

Tuning: Standard


Intro and verse 

e|--------------------------|
B|--------------------------|
G|--------2-----------------|
D|------0---0---0---0-------|  x 4
A|----4-------4---4---4-----|
E|--2-----------------------|

e|--------------------------|
B|--------------------------|
G|--------1-----------------|
D|------0---0---0---0-------| x 4
A|----4-------4---4---4-----|
E|--0-----------------------|

Chorus:

e|--------------0-----------|
B|--------0--------0--------|
G|------4---4---------------|
D|----4-------4-------------| x 4
A|--2-----------------------|
E|--------------------------|

e|--------------4-----------|
B|--------0--------0--------|
G|------2---2---------------|
D|----2-------2-------------| x 4
A|--0-----------------------|
E|--------------------------|

e|--------0-----0-----------|
B|------0---0------0--------|
G|----1-------1-------------|
D|--------------------------| x 4
A|--------------------------|
E|--0-----------------------|

e|--------------0-----------|
B|--------0--------0--------|
G|------4---4---------------|
D|----4-------4-------------| x 4
A|--2-----------------------|
E|--------------------------|
Добавлено: 26.06.2016
Вам также может быть интересно:
Другие материалы по этой песне:
  • Аккорды и текст

Страница создана 26.06.2016
http://primanota.ru/jono-mccleery/garden-chords.htm
Привет, Гость.
Предлагаем пройти революционный курс по гитаре.
Подарок от PrimaNota.Ru, забирай!