PrimaNota.ru - самый крупный в мире бесплатный архив песенных текстов, аккордов, табулатур и нот


Jonny Lang - One Person At A Time - таба, видео

Регистрация Запомнить меня
Войти через:  Facebook Google Twitter Vk Yandex Mail.ru

Jonny Lang - One Person At A Time - таба, видео

Печатать
Просмотров: 124
-----------------------------------------------------------------------
                       Jonny Lang - One person at a time
-----------------------------------------------------------------------
Tabbed by:Gary Elechicon
Email:rephlica@yahoo.com

Tuning:standard

Intro: Gm

e|------------------------------------------------------------|
B|------------------------------------------------------------|
G|------------------------------------------------------------|
D|------------------------------------------------------------|
A|-3~~~-------3h5--3h5--3h5--3h5--3h5--3h5--------------------|
E|-------3----------------------------------------------------|

e|----------------------------------------------------------------|
B|----------------------------------------------------------------|
G|----------------------------------------------------------------|
D|----------------------------------------------------------------|
A|-3~~~-------3h5--3h5--3h5--3h5--3h5--3h5------1h3~~~---1--------|
E|-------3--------------------------------------------------3-----|

Verse:

e|----------------------------------------------------------------|
B|----------------------------------------------------------------|
G|----------------------------------------------------------------|
D|----------------------------------------------------------------|
A|--------3h5--3h5--3h5--3h5--3h5--3h5---------1h3~~~---1---------|
E|-----------------------------------------------------------3----|


Chorus: Gm   Bb  (not sure about this)


Solo after Chorus:                                                

e|--------15--15--------15-----15-----15-----15-----15------15---|
B|---18b------------18b----18b----18b----18b----18b----18b-------|
G|---------------------------------------------------------------|
D|---------------------------------------------------------------|
A|---------------------------------------------------------------|
E|---------------------------------------------------------------|

Solo after 2nd chorus:

e|-------15--15--------15-----15-----15-----15-----15------15--|--------|
B|--18b------------18b----18b----18b----18b----18b----18b------|--------|
G|-------------------------------------------------------------|-3h5~~~-|
D|-------------------------------------------------------------|--------|
A|-------------------------------------------------------------|--------|
E|-------------------------------------------------------------|--------|


e|---------------------------------------------------------------------|
B|---6--8~~~-----/8--6--8~~~-----8--6--8~~~-----8--10---8h10--8-6-8----|
G|-7----------------------------------------------------------------7--|
D|---------------------------------------------------------------------|
A|---------------------------------------------------------------------|
E|---------------------------------------------------------------------|

e|---------------------------------------------------------------------|
B|-6--6~~~-----8-------------------------------------------------------|
G|----x-----------7--7~~~(trem)----------------------------------------|
D|---------------------------------------------------------------------|
A|---------------------------------------------------------------------|
E|---------------------------------------------------------------------|

e|---17b(18)----17--15------15--15~~~~--------------------------|
B|---x-------------------18-----18b~~~--------------------------|
G|---x----------------------------------------------------------|
D|--------------------------------------------------------------|
A|--------------------------------------------------------------|
E|--------------------------------------------------------------|

e|----------------------------------------------------------------------|
B|--16p15-------13--15--16--15~~----------------------------------------|
G|----------15----------------------15--17--17b--17~~-------------------|
D|----------------------------------------------------------------------|
A|----------------------------------------------------------------------|
E|----------------------------------------------------------------------|

e|----------------------------------------------------------------------|
B|----------------------------------------------------------------------|
G|--15---17-15----15--17b--17-----15--17--15--------/18--15-------------|
D|-------------17----------------------------17-------------17--15------|
A|----------------------------------------------------------------------|
E|----------------------------------------------------------------------|

e|----------------------------------------------------------------------|
B|----------------------------------------------------------------------|
G|----------------------------------------------------------------------|
D|----------------------------------------------------------------------|
A|--17--15--------------------------------------------------------------|
E|----------18---15-----------------------------------------------------|



e|-----------------------------------------------------|
B|-----------------------------------------------------|
G|-----------------------------------------------------|
D|-------------3--5------5--3--------------------------|
A|--------3-5-------------------3--5-------------------|
E|--3--6------------------------------6--3-------------|



maybe you'll find this useful! hehe
comment for suggestions and errors!

Jonny Lang - Turn Around album (2006)



| /  slide up
| \  slide down
| h  hammer-on
| p  pull-off
| ~  vibrato
| +  harmonic
| x  Mute note
============================================================================
Добавлено: 12.05.2012
Другие материалы по этой песне:
  • Аккорды и текст

Страница создана 12.05.2012
http://primanota.ru/jonny-lang/one-person-at-a-time-chords.htm
Привет, Гость.
Предлагаем пройти революционный курс по гитаре.
Подарок от PrimaNota.Ru, забирай!