PrimaNota.ru - самый крупный в мире бесплатный архив песенных текстов, аккордов, табулатур и нот


Jonny Corndawg - Undercover Dad - таба, видео

Регистрация Запомнить меня
Войти через:  Facebook Google Twitter Vk Yandex Mail.ru

Jonny Corndawg - Undercover Dad - таба, видео

Печатать
Просмотров: 27
Уроки эстрадного вокала в Санкт-Петербурге
-------------------------------------------------------------------------------
                             SONG NAME - Band Name
-------------------------------------------------------------------------------
Tabbed by: banjo Dan
E-mail:

Tuning:
      C                         Em7
e|---------------------------------------------------------------------------|
B|---1------------1--------------0----------------3--------------------------|
G|--------0-------------0-----------------0--------------0-------------------|
D|------2------------2----------------0--------------0-----------------------|
A|---3---------------------------2-------------2-----------------------------|
E|------------3--------------------------------------------------------------|
    I         must           ad- mit   I           have  a

      Am
e|---------------------------------------------------------------------------|
B|----1--------------1------------1------------- 1---------------------------|
G|----------2---------------2-------------2-------------2--------------------|
D|-------2--------------2-------------2-------------2------------------------|
A|----0----------0----------------0-----------2------------------------------|
E|---------------------------------------------------------------------------|
      Fear                                 

      F                                 F/F#
e|---------------------------------------------------------------------------|
B|----1--------------1-------------------1-----------------1-----------------|
G|-----------2---------------2--------------------2----------------2---------|
D|-------3---------------3--------------------3----------------3-------------|
A|----------------3------------------------------------3---------------------|
E|----1----------------------------------2-----------------------------------|
      My            eyes          have     read   the    words

     G                                                         C
e|---------------------------------------------------------------------------|
B|---3---------------3----------------5------3-----1-----3-----1-------------|
G|------------4---------------4---------------------------------------0------|
D|--------5--------------5----------------------------------------2----------|
A|----------------5--------------------------------------------3-------------|
E|---3-----------------------------------------------------------------------|
     of           my         dear     Daughter's di-a   -ry    


 C        Em7          Am
I must admit I have a fear
F           F/F#             G
My eyes have read the words of my dear daughter's diary
 C         Em7          Am
And I'm afraid if she finds out
 F           F/F#             G
I'll never gain her trust again But it's a risk I have to take
 C        Em7   Am
To be a better Dad
F         F/F#         G
and to be a better friend, be a better friend

 C        Em7          Am
So soft I say a silent prayer
F           F/F#             G
May daddy's little girl never know
C Em7  Am
Never know 
F     F/F#       G
what her daddy's done What her daddy's done 
C  Em7  Am
hmmm hmmmm
F          F/F#           G
I've cried all over the page, so much for 
C  Em7     Am
undercover Dad

C        Em7          Am
Instructions on a hidden page 
F           F/F#             G
tell about a teenage party game, The kids go sleeping bad 
C        Em7          Am
and apparently it's wild
F           F/F#             G
oh the things I've come to know would terrify a child
C        Em7          Am
and kill an older person
F      F/F#    G
like hmmmm hmmmm the unrepeatable
C     Em7      Am
down right absurd
F           F/F#             G
well I'm gonna be a better Dad and be a better friend
C        Em7          Am
I'm gonna be a better friend

F           F/F#             G           C
Добавлено: 23.10.2015
Другие материалы по этой песне:
  • Аккорды и текст

Страница создана 23.10.2015
http://primanota.ru/jonny-corndawg/undercover-dad-chords.htm
Привет, Гость.
Предлагаем пройти революционный курс по гитаре.
Подарок от PrimaNota.Ru, забирай!