PrimaNota.ru - самый крупный в мире бесплатный архив песенных текстов, аккордов, табулатур и нот


Joni Mitchell - The Hissing Of Summer Lawns - текст песни, бас-таба, видео

Регистрация Запомнить меня
Войти через:  Facebook Google Twitter Vk Yandex Mail.ru

Joni Mitchell - The Hissing Of Summer Lawns - текст песни, бас-таба, видео

Печатать
Просмотров: 51
                             The Hissing Of Summer Lawns
                                    Joni Mitchell

Bass                                                          Joni Mitchell

Intro
 
||--------------4---|(4)------2-4---4--||-----------------|---------7-------|
||o---------4-------|-----4-----------o||-----------------|-7---------------|
||o-2-----2---------|-----------------o||-2---------------|-----------------|
||------------------|------------------||-----------------|-----------------|
    Q.    E Q   Q     Q   Q   E Q   E     W                 H       H

Verse 1

|-----------------|-----------------|-----------------|-----------------|
|-9-----9-----9---|(9)------9-9-7-7-|-5-----5-----5---|(5)------5-5-4---|
|-----------------|-----9-9---------|-----------------|-----5-5---------|
|-----------------|-----------------|-----------------|-----------------|
  Q.    Q   E Q     Q   E E E E E E   Q.    Q   E Q     Q   E E E E Q

|-----------------|-----------4-6---|-----------------|-----------------|
|-2-----2-----2---|-2------/5-------|-2-----2-----2---|-2-------3---4---|
|-----------------|-----------------|-----------------|-----------------|
|-----------------|-----------------|-----------------|-----------------|
  Q.    Q   E Q     H       E E Q     Q.    Q   E Q     H       Q   Q

|-----------------|-----------------|-----------------|-----------4---5-|
|-5-----5-----5---|-5-------5---6---|-7-----7-----7---|-7-------7-------|
|-----------------|-----------5-----|-----------------|-----------------|
|-----------------|-----------------|-----------------|-----------------|
  Q.    Q   E Q     H       E E Q     Q.    Q   E Q     H       E Q   E

Interlude 1

|-------------4---|(4)------2-4---4-|-----------------|---------7-------|
|---------4-------|-----4-----------|-----------------|-7---------------|
|-2-----2---------|-----------------|-2---------------|-----------------|
|-----------------|-----------------|-----------------|-----------------|
  Q.    E Q   Q     Q   Q   E Q   E     W                 H       H

Verse 2 (Same as Verse 1)

|-----------------|-----------------|-----------------|-----------------|
|-9-----9-----9---|(9)------9-9-7-7-|-5-----5-----5---|(5)------5-5-4---|
|-----------------|-----9-9---------|-----------------|-----5-5---------|
|-----------------|-----------------|-----------------|-----------------|
  Q.    Q   E Q     Q   E E E E E E   Q.    Q   E Q     Q   E E E E Q

|-----------------|-----------4-6---|-----------------|-----------------|
|-2-----2-----2---|-2------/5-------|-2-----2-----2---|-2-------3---4---|
|-----------------|-----------------|-----------------|-----------------|
|-----------------|-----------------|-----------------|-----------------|
  Q.    Q   E Q     H       E E Q     Q.    Q   E Q     H       Q   Q

|-----------------|-----------------|-----------------|-----------4---5-|
|-5-----5-----5---|-5-------5---6---|-7-----7-----7---|-7-------7-------|
|-----------------|-----------5-----|-----------------|-----------------|
|-----------------|-----------------|-----------------|-----------------|
  Q.    Q   E Q     H       E E Q     Q.    Q   E Q     H       E Q   E

Interlude 2

|-7---------------|(7)------5-7---7-|-----------------|-------------7-7-|
|-----------------|-----7-----------|-----------------|---------7-7-----|
|-----------------|-----------------|-5---------------|(5)--------------|
|-----------------|-----------------|-----------------|-----------------|
  W                 Q   Q   E Q   E   W                 H       E E E E

|(7)--------------|(7)------5-7---7-|-----------------|-----------------|
|-----------------|-----7-----------|-----------------|---------7-------|
|-----------------|-----------------|-5---------------|-5---------------|
|-----------------|-----------------|-----------------|-----------------|
  W                 Q   Q   E Q   E   W                 H       H

Instrumental

|-----------------|-----------------|-----------------|-----------------|
|-8-----8-----8---|(8)6-------------|-----------------|---8-5-----------|
|-----------------|-----8-----------|-6-----6-----6---|(6)----8-6-------|
|-----------------|-------8-6-------|-----------6-----|-----------------|
  Q.    Q   E Q     E E E E H         Q.    Q   E Q     E E E E H

|-------------7---|(7)------5---7---|-----------------|-7-------5-------|
|-------7---------|-----7-----------|-----------------|-----------------|
|-5---------------|-----------------|-5-----------5-5-|-----------------|
|-----------------|-----------------|-----------------|-----------------|
  Q.    Q   E Q     Q   Q   Q   Q     H.          E E   H       H
                                   ___
                                  | 3 |
|-4-----4-----4---|(4)4---2-------------|-----------------|-------9---------|
|-----------------|-----4---------------|-----------------|---9-------------|
|-----------------|---------2-----2-4-5-|-7-----7-----7---|(7)------7-------|
|-----------------|---------------------|-----------------|-----------------|
  Q.    Q   E Q     E E E E Q.    S S S   Q.    Q   E Q     E Q   E H

|-----------------|-----------------|-----------------|---------7-------|
|-7---------------|(7)--7---7-7-----|-7---------------|-7---------------|
|-----------------|-----------------|-----------------|-----------------|
|-----------------|-----------------|-----------------|-----------------|
  W                 Q   E E E Q.      W                 H       H

Verse 3 (Same as Verse 1)

|-----------------|-----------------|-----------------|-----------------|
|-9-----9-----9---|(9)------9-9-7-7-|-5-----5-----5---|(5)------5-5-4---|
|-----------------|-----9-9---------|-----------------|-----5-5---------|
|-----------------|-----------------|-----------------|-----------------|
  Q.    Q   E Q     Q   E E E E E E   Q.    Q   E Q     Q   E E E E Q

|-----------------|-----------4-6---|-----------------|-----------------|
|-2-----2-----2---|-2------/5-------|-2-----2-----2---|-2-------3---4---|
|-----------------|-----------------|-----------------|-----------------|
|-----------------|-----------------|-----------------|-----------------|
  Q.    Q   E Q     H       E E Q     Q.    Q   E Q     H       Q   Q

|-----------------|-----------------|-----------------|-----------4---5-|
|-5-----5-----5---|-5-------5---6---|-7-----7-----7---|-7-------7-------|
|-----------------|-----------5-----|-----------------|-----------------|
|-----------------|-----------------|-----------------|-----------------|
  Q.    Q   E Q     H       E E Q     Q.    Q   E Q     H       E Q   E

Interlude 3 (Same as Interlude 1)

|-------------4---|(4)------2-4---4-|-----------------|---------7-------|
|---------4-------|-----4-----------|-----------------|-7---------------|
|-2-----2---------|-----------------|-2---------------|-----------------|
|-----------------|-----------------|-----------------|-----------------|
  Q.    E Q   Q     Q   Q   E Q   E     W                 H       H

Verse 4 (Same as Verse 1)

|-----------------|-----------------|-----------------|-----------------|
|-9-----9-----9---|(9)------9-9-7-7-|-5-----5-----5---|(5)------5-5-4---|
|-----------------|-----9-9---------|-----------------|-----5-5---------|
|-----------------|-----------------|-----------------|-----------------|
  Q.    Q   E Q     Q   E E E E E E   Q.    Q   E Q     Q   E E E E Q

|-----------------|-----------4-6---|-----------------|-----------------|
|-2-----2-----2---|-2------/5-------|-2-----2-----2---|-2-------3---4---|
|-----------------|-----------------|-----------------|-----------------|
|-----------------|-----------------|-----------------|-----------------|
  Q.    Q   E Q     H       E E Q     Q.    Q   E Q     H       Q   Q

|-----------------|-----------------|-----------------|-----------4---5-|
|-5-----5-----5---|-5-------5---6---|-7-----7-----7---|-7-------7-------|
|-----------------|-----------5-----|-----------------|-----------------|
|-----------------|-----------------|-----------------|-----------------|
  Q.    Q   E Q     H       E E Q     Q.    Q   E Q     H       E Q   E

Outro

|-7---------------|(7)------5-7---7-|-----------------|-------------5---|
|-----------------|-----7-----------|-----------------|---------7-7---7-|
|-----------------|-----------------|-5---------------|(5)--------------|
|-----------------|-----------------|-----------------|-----------------|
  W                 Q   Q   E Q   E   W                 H       E E E E

||--7---------------|(7)------5-7-----|-----------------|-------------5----||
||o-----------------|-----7---------7-|-----------------|---------7-7---7-o||
||o-----------------|-----------------|-5---------------|(5)--------------o||
||------------------|-----------------|-----------------|------------------||
    W                 Q   Q   E Q   E   W                 H       E E E E


sKey to rhythm notations:

W - Whole Note/Semi-Brieve
H - Half Note/Minim
Q - Quarter Note/Crotchet       Q. - Dotted Quarter Note
E - Eight Note/Quaver           E. - Dotted Eight Note
S - Sixteenth Note/Semi-Quaver  S. - Dotted Sixteenth Note
Добавлено: 04.09.2015
Другие материалы по этой песне:
  • Аккорды и текст

Страница создана 14.06.2012
http://primanota.ru/joni-mitchell/the-hissing-of-summer-lawns-chords.htm
Привет, Гость.
Предлагаем пройти революционный курс по гитаре.
Подарок от PrimaNota.Ru, забирай!