PrimaNota.ru - самый крупный в мире бесплатный архив песенных текстов, аккордов, табулатур и нот


Joni Mitchell - The Boho Dance - текст песни, бас-таба, видео

Регистрация Запомнить меня
Войти через:  Facebook Google Twitter Vk Yandex Mail.ru

Joni Mitchell - The Boho Dance - текст песни, бас-таба, видео

Печатать
Просмотров: 40
                                   The Boho Dance
                                    Joni Mitchell

Bass                                                          Joni Mitchell

Intro
 
4 Bars Rest

Verse 1

15 Bars Rest

|-----------------|
|-------------4---|
|---------4-5-----|
|---------------3-|
  H       E E E E 

Verse 2

|-----------------|-------5---------|---------4---7-8-|-9---------------|
|-------------5---|-----------5-----|-5---7-----------|---------------9-|
|-----------5-----|-3-----------3---|-----------------|-----------7-----|
|(3)--------------|-----------------|-----------------|-----------------|
  W         E Q     Q.    Q   E Q     Q   Q   Q   E E   H       E Q   E

|---------------2-|---------------4-|-----------------|-----------------|
|-7---------------|-----------------|-2---------------|-----------------|
|---------0-------|-2-4---2---------|-----------------|-0---------------|
|-----------------|-----------------|---------------0-|-----------------|
  H       Q.    E   E Q   H       E   Q.          E E   W

Interlude 1

|-----------------|-----------------|-----------------|-----------------|
|-----------------|-----------------|-----------------|-------------7h9-|
|-----------------|-----------------|-----------------|-----------------|
|-----------------|-----------------|-----------------|-----------------|
  W                 W                 W                 H.        E S S

Verse 3

|-----------------|-----------7-----|---------------9-|-----------------|
|-7-----------7-7-|-9-----------9---|----------/9-----|-7-----------7-9-|
|-----------------|---------------8-|-7---------------|----------/9-----|
|-----------------|-----------------|-----------------|-----------------|
  H.          S S   H       E E E E   H       E Q   E   H       E E E E

|-----------------|----/6-----------|-----------------|-----------------|
|-7-----------7-7-|-9-------9---7-5-|-----------------|---------0-2-4-5-|
|-------0-0-------|-----------------|-7-----------2---|-0---------------|
|-----------------|-----------------|-----------3---0-|-----------------|
  Q.    E Q.  S S   Q   Q   Q   E E   H       E E E E   H       E E E E

|-----------------|-4---------4-----|-----------------|-----------7---9-|
|(5)----5-7-----7-|-----------------|-----------------|-------9---------|
|-----------------|-------2-------0-|---------2/------|-7---------------|
|-----------------|-----------------|-3---5-----------|-----------------|
  Q.    E Q.    E   Q.    Q   Q   E   Q   Q   H         Q.    Q   Q   E

|-------9---------|---------------4-|-----------------|-----------------|
|-7-------7---7-7-|-------------4---|-2---------2-2/--|-7-----------4---|
|-----------------|-2---4---2-------|-----------------|-----0---4-5-----|
|-----------------|-----------------|-----------------|---------------3-|
  Q.    E Q.  S S   Q   Q   Q   E E   H         E Q     Q   Q   E E E E

Verse 4

|-----------------|-----------5-----|-----------------|-------------7-9-|
|-----------------|------/5-----5---|-----------------|---------7-9-----|
|---------------5-|-3-------------3-|---------2-----5-|-7---------------|
|(3)----3-3-------|-----------------|-3---5-----------|-----------------|
  Q.    E Q.    E   Q.    Q   E E E   Q   Q   Q.    E   H     E S S E E

|-----------------|-----------------|-----------9-----|-----------------|
|-7-------7---7-9-|-9---11--9---7---|-------9-----9---|-----------------|
|-----------------|---------------9-|-7-------------7-|-0---------------|
|-----------------|-----------------|-----------------|-----------------|
  H     E Q   S S   Q   Q   Q   E E   Q.    Q   E E E   W

Interlude

|-12h14-----------|-----------------|-----------------|-----------------|
|-----------------|-----------------|-----------------|-----------------|
|-----------------|-----------------|-----------------|-----------------|
|-----------------|-----------------|-----------------|-----------------|
  S  E. Q   H       W                 W                 W

|---------------|--------------|---------------|-14-16------------------|
|---------------|--------------|---------------|-------14-16-12-14------|
|---------------|--------------|---------------|-------------------12-0-|
|---------------|--------------|---------------|------------------------|
  W               W              W               E  E  E  E  E  E  E  E

Verse 5

|-----------------|-----------------|-----------------|-----------------|
|-------7---------|---------------4-|-2---------4-5-9-|-7-----------7---|
|(0)----------0-0-|-2---------4-5---|-----------------|---------7-----7-|
|-----------------|-----------------|-----------------|-----------------|
  Q.    H     S S   H       E E E E   H       E E E E   H     E Q   S S

|-----------------|-----7-------7-9-|---------------9-|-----------------|
|-7---------7---9-|-9-------9-------|-----------9-----|-7-------0-2-4-5-|
|-----------------|-----------------|-7---------------|-----0-----------|
|-----------------|-----------------|-----------------|-----------------|
  H       E Q   E   Q   Q   Q   E E   H       E Q   E   Q   Q   E E E E

|-----------------|-4---------------|---------4---7-7-|-9---------7-----|
|(5)----5-7-----7-|-----------------|-5---7-----------|-------------9---|
|-----------------|---------2-----5-|-----------------|---------------7-|
|-----------------|-----------------|-----------------|-----------------|
  Q.    E Q.    E   H       Q.    E   Q   Q   Q.  S S   H       E E E E

|-----------------|-----------------|-----------------|-----------------|
|-7---------------|-----------------|-----------------|-------------4---|
|---------0-------|-2-4---2-----4-5-|-7-------------2-|-0-------4-5-----|
|-----------------|-----------------|-----------0-3---|---------------3-|
  H       H         E Q   Q.    E E   H       E E E E   H       E E E E

Verse 6

|-----------------|---5-------------|-----------------|---------------4-|
|---------------5-|-5---5-----------|-------------0-1-|-2---------2-5---|
|---5-------------|-----------------|---------2-------|-----------------|
|(3)--3-----3-----|-----------------|-3---5-----------|-----------------|
  E E Q.    Q   E   E E H             Q   Q   Q   E E   H       E E E E

|-2---------------|-----------------|---------------4-|-2---------------|
|-----------------|-----------------|-2---------2-5---|-------------4---|
|---------0-------|-2---4---2---4-5-|-----------------|---------4-5-----|
|-----------------|-----------------|-----------------|---------------3-|
  H       H         Q   Q   Q   E E   H       E E E E   H       E E E E

|-----------------|-------5---------|-----------------|-------7---9-----|
|-----------------|-----5---5-------|-----------------|--/9-------------|
|---------------2-|-3---------3-x---|---------2/------|-7-------------7-|
|(3)--3-3-3-5-----|---------------3-|-3---5-----------|-----------------|
  Q   E E E Q   E   Q.  Q S S E S S   Q   Q   H         E Q   Q   Q   E

|-----------------|-4--/6---4-2-----|-----------------|-----------------|
|-7---------------|-------------4-3-|-2---------0-----|-----------------|
|-----------------|-----------------|-------------2-1-|-0---------------|
|-----------------|-----------------|-----------------|-----------------|
  W                 Q   Q   E E E E   Q       E E E E   W

Outro

|--------------(5-|(5)--------------|-----------------|-----------------|
|--------------)5-|(5)--------------|-----------------|-----------------|
|--------------(3-|(3)--------------|-----------------|-----------------|
|-1-------3-------|-----------------|-----------------|-----------------|
  H       Q.    E   W                 W                 W

|-----------------||
|-7---------------||
|-5---------------||
|-----------------||
  W

Key to rhythm notations:

W - Whole Note/Semi-Brieve
H - Half Note/Minim
Q - Quarter Note/Crotchet       Q. - Dotted Quarter Note
E - Eight Note/Quaver           E. - Dotted Eight Note
S - Sixteenth Note/Semi-Quaver  S. - Dotted Sixteenth Note
Добавлено: 04.09.2015
Другие материалы по этой песне:
  • Аккорды и текст

Страница создана 04.05.2012
http://primanota.ru/joni-mitchell/the-boho-dance-chords.htm
Привет, Гость.
Предлагаем пройти революционный курс по гитаре.
Подарок от PrimaNota.Ru, забирай!