PrimaNota.ru - самый крупный в мире бесплатный архив песенных текстов, аккордов, табулатур и нот


Joni Mitchell - Song For Sharon - текст песни, бас-таба, видео

Регистрация Запомнить меня
Войти через:  Facebook Google Twitter Vk Yandex Mail.ru

Joni Mitchell - Song For Sharon - текст песни, бас-таба, видео

Печатать
Просмотров: 101
Уроки эстрадного вокала в Санкт-Петербурге
                                   Song For Sharon
                                    Joni Mitchell

Bass                                                          Joni Mitchell

Intro
  
|------------|-----------------|-----------------|-----------------|
|-- 6 Bars --|-----------------|-----------------|-----------------|
|--  Rest  --|---------------6-|-6---------------|(6)--------------|
|------------|-----------------|-----------------|-----------------|
               H       Q.    E   W                 W

Verse 1

|-----------------|-----------------|-----------------|-----------------|
|---------------8-|-----------------|---------------8-|-------------8---|
|-----------------|-----------------|-6---------------|-6-------------6-|
|-6---------------|-6-------------6-|-----------------|-----------6-----|
  H       Q.    E   H       Q.    E   H       Q.    E   H       E E E E

|-----------------|-----------------|-----------------|-------8-----------|
|---------------6-|---------6---6-8-|---------------8-|---------------2-3-|
|-----------6-----|-----------------|-6---6-6---------|-6---------6-------|
|-4---------------|-4---------------|---------6-------|-------------------|
  H       E Q   E   H       Q.  S S   Q.  S S Q.    E   Q.    E   Q   S S

|-----------------|-------------6-8-|-----------------|-----------------|
|-4---------------|-----------------|-4---------------|-4-----------4-5-|
|---------4-----4-|---------4-------|---------4-----4-|-----------4-----|
|-----------------|-2---------------|-----------------|-----------------|
  H       Q.    E   H       E E E E   H       Q.    E   H       E E E E

|-----------------|-----------------|-------6-------6-|-------6-------6-|
|-6-----------6---|---------6---6-8-|-----------------|-----------------|
|--------/6-----6-|-----------------|-4---------------|-4---------------|
|-----------------|-4---------------|-----------------|-----------------|
  H       Q   E E   H       Q.  S S   Q.    H       E   Q.    H       E

Interlude 1

|---10h11p10--10h11p10--10h11p|-10--10h11p10--10h11p10--|-----------------|-----------------|
|-----------------------------|-------------------------|-------8---------|-----------------|
|-----------------------------|-------------------------|-6-------------6-|(6)----------6---|
|-----------------------------|-------------------------|---------6---6---|-----------------|
  E S  S  Q   S  S  Q   S  S    Q   S  S  Q   S  S  Q     Q.    E Q   E E   H.          Q

Verse 2

|-----------------|-----------------|-----------------|-----------------|
|-------8---------|-------8---------|-------8---------|---------------8-|
|---------------8-|-----------------|-6-------6-------|-6---6-6---------|
|-6---------------|-6-----------6-8-|---------------6-|---------6-------|
  Q.    H       E   Q.    H     S S   Q.    E Q.    E   Q.  S S Q.    E

|---------------8-|-----------------|-----------------|-----------------|
|-----------------|-6-------6---6-8-|---------------8-|-----8-------2-3-|
|---------6-------|-------6---------|-6---------------|-6-------6-------|
|-4---------------|-----------------|-------6---------|-----------------|
  H       Q.    E   Q.    E Q.  S S   Q.    H       E   Q.  Q   Q   S S

|-----------------|-----------------|-----------------|-----------------|
|-4-----------2---|---------------6-|-4-----4---------|-----------------|
|---------4-----4-|-------4---------|---------4-4---4-|-------4---------|
|-----------------|-2---------------|-----------------|-2-------2---2/--|
  H       Q   E E   Q.  S S Q.    E   Q.    E E Q   E   Q.    E Q   Q

|-----------------|-------8---------|-----------------|-----------------|
|-------------4-6-|-----------------|-----------------|-----------------|
|-------6---------|-----------------|-6-------6-------|-6-------6-------|
|-4---------------|-4-------4---6-8-|-------6-------6-|-------6---------|
  Q.  S S Q   E E   Q.    E Q.  S S   Q.    E Q.    E   Q.    E H

Interlude 2

|---10h11p10--10h11p10--10h11p|-10--10h11p10--10h11p10--|-------------8---|-----------------|
|-----------------------------|-------------------------|-------8---------|-------8---------|
|-----------------------------|-------------------------|-6-------------6-|(6)------6---6\--|
|-----------------------------|-------------------------|---------6-------|-----------------|
  E S  S  Q   S  S  Q   S  S    Q   S  S  Q   S  S  Q     E Q   E E   Q.    E Q   Q

Verse 3

|-------3-----1-3-|-------3---------|-----------------|-----------------|
|-----------------|-----------------|---------------8-|-----------------|
|-1---------------|-1-----------1-5-|-6---------------|-1---------------|
|-----------------|-----------------|-----x-6-6-------|-----------8-6-5-|
  Q.    Q.    E E   Q.    Q.    E E   Q.  S S Q.    E   H       E E E E

|-----------------|-------8-----3/5-8-|-----------------|-----------------|
|---------------8-|-6-------6---------|-----------------|-----------------|
|---------6-------|-------------------|-6---------------|-6-------6-6-----|
|-4---------------|-------------------|---------6---6-8-|---------------4\|
  H       Q.    E   Q.    E Q   S S E   H       Q.  S S   H       E Q   E

|-----------------|-----------6-----|---------------6-|---------------------|
|-------------2---|-------4-------6-|-4---------------|-4-----------4-----4-|
|---------4-----4-|-------------4---|---------4-------|---------4-6-----6---|
|-2---------------|-2---------------|-----------------|---------------------|
  H       Q   E E   Q   E E E E E E   H       Q.    E   H       S S Q   S S

|-----------------|-----------------|-------8-----8---|-8---------8-----|
|-6---------------|-------------6/8-|-----------------|-----------------|
|---------6-----6-|---------6-------|-6---------------|---6-6-6---------|
|-----------------|-4---------------|-----------------|-----------------|
  H       Q.    E   H       Q   E E   Q.    Q.    Q     E E E E E Q.

Interlude 3

|---10h11p10--10h11p10--10h11p|-10--10h11p10--10h11p10--|-----------------|-----------------|
|---8---------8---------8-----|-----8---------8---------|-------8-8-------|-------8---------|
|-----------------------------|-------------------------|-6-------------6-|(6)------6---6\--|
|-----------------------------|-------------------------|-------------6---|-----------------|
  E S  S  Q   S  S  Q   S  S    Q   S  S  Q   S  S  Q     E Q   E E   Q.    E Q   Q

Verse 4

|-----------------|-------3-3-------|-----------------|-----------------|
|---------------3-|-----------------|---------------8-|-------------8-7-|
|-1---------------|-1-------------3-|-6---------------|-6-------6-------|
|---------1-------|-----------------|---------6-------|-------6---------|
  H       Q.    E   Q.    E Q.    E   H       Q.    E   Q.    E Q   E E

|-----------------|---------------8-|-------8---------|-------8---------|
|-6---------------|---------6-------|-----------------|-----------------|
|---------6-------|-----------------|-6---------------|-6-------6-------|
|---------------6-|-4-----4---------|---------------6-|---------------1/|
  H       Q.    E   Q.  S S Q.    E   Q.    H       E   Q.    E Q.    E

|-----------------|---------11------|---------------6-|---------------------|
|-------------2---|-----------11----|-4---------------|-4-----------4-----4-|
|---------4-----4-|---------------4-|---------4-------|---------4-6-----6---|
|-2---------------|-2-----9---------|-----------------|---------------------|
  H       Q   E E   Q.    E E Q   E   H       Q.    E   H       S S Q   S S

|-----------------|-----------------|-------8-----8---|---------8-------|
|-6---------------|-------6-----6-8-|-----------------|-----------8-----|
|-------4/6-----6-|-----------------|-6---------------|-1/6---------6---|
|-----------------|-4---------------|-----------------|-----------------|
  H       Q.    E   Q   E Q   Q S S   Q.    Q.    Q     E Q.    E E Q

Interlude 4

|---10h11p10--10h11p10--10h11p|-10--10h11p10--10h11p10--|-------8---------|---8-----8-------|
|-----------------------------|-------------------------|-------------8---|-----------------|
|-----------------------------|-------------------------|-6-------------6-|(6)--6-----6-----|
|-----------------------------|-------------------------|---------6-------|-----------------|
  E S  S  Q   S  S  Q   S  S    Q   S  S  Q   S  S  Q     E Q   E E   Q.    E E Q   E Q.

|---10h11p10--10h11p10--10h11p|-10--10h11p10--10h11p10--|-----------------|---8-------------|
|-----------------------------|-------------------------|-------8-----8---|-----------------|
|-----------------------------|-------------------------|-6-------------6-|(6)--------6\----|
|-----------------------------|-------------------------|---------6-------|-----------------|
  E S  S  Q   S  S  Q   S  S    Q   S  S  Q   S  S  Q     E Q   E E   Q.    E H       Q.

Verse 5

|---------------3-|-----------------|-----------------|-----------------|
|-----------------|-----------------|-------8-------8-|---8-------------|
|-1---------------|-1---------1---1-|-6---------------|-6---6-----------|
|-----------------|-----------------|-----------------|-----------8-7-6-|
  H       Q.    E   H       E Q   E   Q.    Q   Q   E   E E Q.    E E E 

|-----------------|-----------------|-----------------|-----------------|
|-----------------|-----------------|-----------------|---------------3-|
|---------------6-|-----------------|-6---------------|-6---------6-----|
|-4---------------|-4---------4-----|-------------6---|-----------------|
  H       Q.    E   H       E Q.      H.          Q     H       E Q   E

|-----------------|-----------------|-----------------|-----------------|
|-4---------------|-----------------|-4-----------4---|-------4---------|
|---------4-------|-------4---------|-------4-------4-|-----------------|
|-----------------|-2---------------|-----------------|-2---------------|
  H       H         Q.    Q.    Q     Q.    Q.    E E   Q.    E H

|---------------------|-----------------|-----8-----------|---8-------8-8---|
|-------6---4-----4---|-------6---------|-----------------|-----------------|
|-------------6-----6-|-----------------|-6---------------|-6---6-----------|
|-4-------------------|-4---------4-6h8-|-----------6-6h8-|-----------------|
  Q.    Q   S S E S S   Q.    Q   Q S S   Q   Q.    Q S S   E E Q.    E Q

Interlude 5

|---10h11p10--10h11p10--10h11p|-10--10h11p10--10h11p10--|-----------------|-------8---------|
|-----------------------------|-------------------------|-------8-----8---|-----------------|
|-----------------------------|-------------------------|-6-------------6-|(6)--------6\----|
|-----------------------------|-------------------------|---------6-------|-----------------|
  E S  S  Q   S  S  Q   S  S    Q   S  S  Q   S  S  Q     E Q   E E   Q.    Q.    Q   Q.

Verse 6

|-----------1-2-3-|-------3---------|-----------------|-----------------|
|-------3---------|-----------------|---------------8-|-----------------|
|-1---------------|-1---------1-1h3-|-6-----6---------|-6---------6-----|
|-----------------|-----------------|---------6-------|-------6-8---8-6-|
  Q.    Q   E E E   Q.    Q   Q S S   Q.    E Q     E   Q.    E E E E E

|-----------------|-------------6-8-|-------8---------|-----------------|
|-------6-----4---|-------6---8-----|-6-------------8-|-----------------|
|---------------6-|-----------------|-----------------|-6-----6---6-----|
|-4---------------|-4---------------|-----------------|---------------1/|
  Q.    Q.    E E   Q.    Q.  E S S   Q.    H       E   Q.    Q   Q   E

|-----------------|-----------------|-----------------|-----------------|
|-------4-----2---|-------2-----2-4-|-------4-----2---|-----------------|
|---------------4-|-----------4-----|---------------4-|-----------------|
|-2-2-------------|-2-2-------------|-2---------------|-2-2---2---2---3-|
  E Q   Q.    E E   E Q   Q   E E E   Q.    Q.    E E   E Q   Q   Q   E

|-----------------|-----------------|-----------------8-|-----------------|
|-----------4-5-6-|-------6-------4-|-------8---8-8-8---|-------8---------|
|-------6---------|-----------------|-6-----------------|-6-------6-6-----|
|-4---------------|-4---------------|-------------------|-----------------|
  Q.    Q   E E E   Q.    H       E   Q.    Q   S S E E   Q.    E E Q.

Interlude 6

|---10h11p10--10h11p10--10h11p|-10--10h11p10--10h11p10--|-----------------|-------8---------|
|-----------------------------|-------------------------|-------8-8-------|-----------------|
|-----------------------------|-------------------------|-6-------------6-|(6)--------6\----|
|-----------------------------|-------------------------|-------------6---|-----------------|
  E S  S  Q   S  S  Q   S  S    Q   S  S  Q   S  S  Q     E Q   E E   Q.    Q.    Q   Q.

Verse 7

|-----------------|-------3-3-------|-------------------|-----------------|
|-----------------|-----------------|-1-1-------1-1-----|-1-1-----1-1-----|
|-1-----1---------|-1-----------1---|-------1h3-------1-|-------1-----1-0-|
|-----------------|-----------------|-------------------|-----------------|
  Q.    E H         Q.    E Q   Q     E Q   S S E Q   E   E Q   E E E E E

|-----------------|-------------------|-----------------|-----------------|
|-------6-----4---|-------------------|-------8---------|---------------3-|
|---------------6-|-------6-----------|-6-------6-------|-6---6---6---6---|
|-4---------------|-4-------4-4---6h8-|---------------6-|---6-------6-----|
  Q.    Q.    E E   Q.    E E Q   S S   Q.    E Q.    E   E E Q   E E E E

|-----------------|-----------------|------/9--10-----|-------6---------------|
|-4-----4-----2---|-----------2-3-4-|---------------2-|-4-------------4---4-5-|
|---------------4-|-------4---------|-------------4---|-----------4-6---4-----|
|-----------------|-2---------------|-2---------------|-----------------------|
  Q.    Q.    E E   Q.    Q   E E E   Q.    Q   E E E   Q.    Q   S S S S S S

|-----------------|-----------------|---8-----8-8---8-|---8-------------|
|-6-----6-----4---|---6---6---6-----|-----------------|/8---------------|
|---------------6-|---------------4-|-6-----6---------|-------6-----6---|
|-----------------|-4---4---4---4---|-----------------|-----------------|
  Q,    Q,    E E   E E E E E E E E   E Q   E E Q   E   E Q   Q.    Q

Verse 8

|---------3---1---|---------3---3/5-|-------3-3---------|-------------------|
|---------------3-|-----------------|-1-----------------|-------3-----------|
|-------1---------|-1-----1---------|---------------1-3-|-1-----------------|
|-----------------|-----------------|-------------------|-----------x-6-6-5-|
  Q.    E Q   E E   Q.    E Q   E E   Q.    E Q.    S S   Q.    Q   S S E E

|-----------------|-----------------|-----------------|-------8-----------|
|-------6---6-4---|-------6---------|-------8-------8-|-----------8-------|
|-----6---------6-|-------------4-5-|-6---------------|-6-----------6-7-8-|
|---4-------------|-4-------4-------|-----------------|-------------------|
  E E E Q   E E E   Q.    E Q.  S S   Q.    H       E   Q.    Q   E E S S

|-----------------|-----------4-----|---------------6-|-----------------|
|-4---------------|-----------------|-4---------------|-4-------4---4-5-|
|---------4-----4-|-------4-------4-|-------4---------|-------4---4-----|
|-----------------|-2---------------|-----------------|-----------------|
  H       Q.    E   Q.    Q   Q   E   Q.    H       E   Q.    E E E E E

|-----------------|-------------------|---------------8-|---------9-------|
|-6---------------|-------6-----6-----|-----------------|-----------------|
|--------/6-----6-|---------------8-7-|-6-------6-------|-6---------------|
|-----------------|-4-----------------|-------6---------|-----------------|
  H       Q.    E   Q.    Q.    E S S   Q.  S S Q.    E   H       H

Interlude 7

|---10h11p10--10h11p10--10h11p|-10--10h11p10--10h11p10--|-----------------|-----------------|
|-----------------------------|-------------------------|-------8---------|-----------------|
|-----------------------------|-------------------------|-6-------------6-|(6)----------6\--|
|-----------------------------|-------------------------|---------6---6---|-----------------|
  E S  S  Q   S  S  Q   S  S    Q   S  S  Q   S  S  Q     E Q   E E   Q.    H.          Q

Verse 9

|-----------------|-------------1-3-|-----------------|-------3-----------|
|---------------3-|-----------------|-1-----x-1-1-----|-1-1-----1-1-------|
|-1-------1-------|-1-------1-------|-----1---------1-|-----1---------1-0-|
|-----------------|-----------------|-----------------|-------------------|
  H       Q.    E   H     E Q   S S   E E E.S S S E.E.  E.S E.S E E E S S
                                                   ___
                                                  | 3 |
|-----------------|-----------------|-------8---8-------6---|-----------------|
|-------6---6-4---|-------6---6-7-8-|-------------6h7h8-----|---8-------8-----|
|---------------6-|-----------------|-6-------------------6-|-6---6-------6---|
|-4---------------|-4---------------|-----------------------|-----------------|
  Q.    Q   E E E   Q.    Q   E E E   Q.    Q   E S S S S S   E E Q.    E Q

|-----------------|-----------------|-----------6-----|-----------------------|
|-------4-----2---|-----------------|-------4-------4-|-4-------4-----4---4-5-|
|---------------4-|-------1---2-3-4-|-------------4---|-------4---4-6---4-----|
|-2---------------|-2---------------|-2---------------|-----------------------|
  Q.    Q.    E E   Q.    Q   E E E   Q.    Q   E E E   Q.    E E S S S S S S

|-----------------|-------------------|-----------------|-----------------|
|-6-----6-----4---|-------6-----------|-----------------|-----------------|
|---------------6-|-----------6-------|-6-----6---6-----|-6-----6---6-----|
|-----------------|-4-------------6-8-|---------------6-|-----------------|
  Q.    Q.    E E   Q.    Q   Q   S S   Q.    Q   Q   E   Q.    Q   Q.

Interlude 8

|---10h11p10--10h11p10--10h11p|-10--10h11p10--10h11p10--|-----------------|-----------------|
|-----------------------------|-------------------------|-------8-----8---|-----------------|
|-----------------------------|-------------------------|-6-------------6-|(6)--------------|
|-----------------------------|-------------------------|---------6-------|---------------6-|
  E S  S  Q   S  S  Q   S  S    Q   S  S  Q   S  S  Q     E Q   E E   Q.    H.          E E

Verse 10

|-3-----3-------3-|-------3---------|-----------------|-----------------|
|-----------------|-----------------|---------------8-|-----------------|
|-----------------|-1---------1/----|-6---------------|-6-------------6\|
|-----------------|-----------------|-----------------|-----------------|
  Q.    H       E   Q.    Q   Q.      H.          E E   H.          E E

|-----------------|-----------------|-----------8-----|-----------------|
|-----------------|-----------------|---------------8-|-----------------|
|-----------------|-------------4-5-|-6---------------|-6---------------|
|-4-------------4-|-4---------------|-----------------|-----------------|
  H.          E E   H.        E S S   H       E E E E   W

|-----------------|-----------------|-----------------|-----------------|
|-----------------|-----------------|-----------------|-----------------|
|-----------------|-----------------|-----------------|-----------------|
|-2-----2-2-----2-|-2-2---2-2-2---2-|-2-2---2-2-2---2-|-2-2---2---2---3-|
  Q.    E Q.    E   E Q   E E Q   E   E Q   E E Q   E   E Q   Q   Q   E 

|-----------------|-------------------|-------8---------|-------8---------|
|---------------6-|-------6-----------|---------------8-|-----------------|
|-----------------|---------------4h5-|-6---------------|-6---------------|
|-4-----4-4-4-----|-4-------4-4-------|-----------------|-----------------|
  Q.    E E Q   E   Q.    E E Q   S S   Q.    H       E   Q.    E H

Outro

|---10h11p10--10h11p10--10h11p|-10--10h11p10--10h11p10--|-----------------|-----------------|
|-----------------------------|-------------------------|-------8-----8---|-----------------|
|-----------------------------|-------------------------|-6-------------6-|(6)----6-----6---|
|-----------------------------|-------------------------|---------6-------|-----------------|
  E S  S  Q   S  S  Q   S  S    Q   S  S  Q   S  S  Q     E Q   E E   Q.    Q.    Q.    Q

|---10h11p10--10h11p10--10h11p|-10--10h11p10--10h11p10--|-----------------|----8\-----------|
|-----------------------------|-------------------------|-------8-----8---|-----------------|
|-----------------------------|-------------------------|-6-------------6-|(6)--------------|
|-----------------------------|-------------------------|---------6-------|-----------------|
  E S  S  Q   S  S  Q   S  S    Q   S  S  Q   S  S  Q     E Q   E E   Q.    E

|---10h11p10--10h11p10--10h11p|-10--10h11p10--10h11p10--|-----------------|---------8-------|
|-----------------------------|-------------------------|-------8-----8---|-----------------|
|-----------------------------|-------------------------|-6-------------6-|(6)--6-----6-----|
|-----------------------------|-------------------------|---------6-------|-----------------|
  E S  S  Q   S  S  Q   S  S    Q   S  S  Q   S  S  Q     E Q   E E   Q.    Q   Q   E Q.

|---10h11p10--10h11p10--10h11p|-10--10h11p10--10h11p10--|-----------------|-----------------|
|-----------------------------|-------------------------|-------8-----8---|-------8---------|
|-----------------------------|-------------------------|-6-------------6-|(6)--------6-----|
|-----------------------------|-------------------------|---------6-------|-----------------|
  E S  S  Q   S  S  Q   S  S    Q   S  S  Q   S  S  Q     E Q   E E   Q.    Q.    Q   Q.


Key to rhythm notations:

W - Whole Note/Semi-Brieve
H - Half Note/Minim
Q - Quarter Note/Crotchet       Q. - Dotted Quarter Note
E - Eight Note/Quaver           E. - Dotted Eight Note
S - Sixteenth Note/Semi-Quaver  S. - Dotted Sixteenth Note
Добавлено: 01.08.2015
Другие материалы по этой песне:
  • Аккорды и текст

Страница создана 14.04.2012
http://primanota.ru/joni-mitchell/song-for-sharon-chords.htm
Привет, Гость.
Предлагаем пройти революционный курс по гитаре.
Подарок от PrimaNota.Ru, забирай!