PrimaNota.ru - самый крупный в мире бесплатный архив песенных текстов, аккордов, табулатур и нот


Joni Mitchell - Refuge Of The Roads - текст песни, бас-таба, видео

Регистрация Запомнить меня
Войти через:  Facebook Google Twitter Vk Yandex Mail.ru

Joni Mitchell - Refuge Of The Roads - текст песни, бас-таба, видео

Печатать
Просмотров: 57
Уроки эстрадного вокала в Санкт-Петербурге
Авторы музыки: Joni Mitchell
Авторы текста: Joni Mitchell
                                 Refuge Of The Roads
                                    Joni Mitchell

Bass                                                          Joni Mitchell

Intro
  
|----------|-----------------|
|- 9 Bars -|-----------------|
|-  Rest  -|-----------------|
|----------|-------------1---|
             H.          Q

Verse 1
          _____
         |  3  |   
|--------------12-|(12)---19--------|-----------------|---/14-12--14----|
|----------/10----|-----------------|-----------------|--------------10-|
|--------8--------|-----------------|-----------------|-----------------|
|(1)--------------|-----------------|-----------------|-----------------|
  H      Q  Q  Q    Q.    Q   E Q     W                 Q.  E Q   E  E

|-----------------|-----------------|-----------------|-----------------|
|(10)-------------|-----------------|-------8---------|(8)-----------/7-|
|-----------------|-----------------|-----------------|-----------------|
|-----------------|-----------------|-----------------|-----------------|
  H.          Q     W                 Q.    E H         H        Q.   E

|---5-------------|-----------------|-----------------|-----------------|
|(7)---/7---------|/5---------------|-------------3---|-----------------|
|-------------7---|-----2-------x---|-1---------------|-3---------------|
|-----------------|-------0---------|-----------------|-----------------|
  E Q   Q  Q. S S   Q   E E Q.  S S   H.        E S S   W

|-3---------------|-5---------------|-----10/15-------|----------17-15--|
|-----------------|-----------------|/12--------------|-----------------|
|-----------------|-----------------|-----------------|-----------------|
|-----------------|-----------------|-----------------|-----------------|
  W                 W                 Q   E  E  H       H      E E  Q

|-----10/12-------|(12)-------------|
|/12--------------|-----------------|
|-----------------|-----------------|
|-----------------|-----------------|
  Q   E  E  H       W

Bridge 1

|-----------------|-------3---------|-----------------|---------5-------|
|-----------------|---------2-2-5---|-----------------|-------x-----5\--|
|-----3-3---------|-----------------|-----------0-----|-----------------|
|---3-----0-0-3-3-|-----------------|-------------3-1-|-----------------|
  E.S E E E E E E   Q.    E E E Q     H       E E E E   Q.    E Q   Q

|-----------------|-----------------|-------3---------|
|-2---------------|-----------------|----------3------|
|-----------------|-1---------------|(1)--------------|
|-----------------|-----------------|-----------------|
  W                 W                 Q.    Q  Q.

Bass Solo 1                                                   _____
                                                             |  3  |
|-----------------|-----------------|-----12-12-------|(12)----14-16-17-------|
|-14----14-14-----|-----------------|-8---------------|-------------------/17-|
|-----------------|--------------15-|-----------------|-----------------------|
|-----------------|-----------------|-----------------|-----------------------|
  Q.    E  H        H.         E E    Q   E  E  H       Q    E E  E  Q.    E

|-----19-19-------|(19)-------------|
|-15--------------|-----------------|
|-----------------|-----------------|
|-----------------|-----------------|
  Q   E  E  H       W

Verse 2

|----------|-----------------|
|-17 Bars -|-----------------|
|-  Rest  -|-----------------|
|----------|-------------3-3-|
             H.          E E

Bridge 2

|-----------------|-------------------|-----------------|-----------------|
|-----------------|-------------------|-----------------|-----------------|
|-3-3-3-----------|---3---3---0-------|-----------------|---x-------5-----|
|-----------0-3---|---------0-----3-1-|-1-1-1---1-------|---------------3-|
  E E E Q   E E E   E E E E E S S E E   E E Q   H         E.S Q.    E E E

|-----------------|--------/3-------|/3---------8-----|
|-2-------------2-|-----------------|-----------------|
|-----------------|-1---------------|-----------------|
|-----------------|-----------------|-----------------|
  H.          E E   H       H         H       E Q.

Bass Solo 2                                                        _____    _____
                                                                  |  3  |  |  3  |
|-------14-12--14----|-----------------|-14--16-/12------|-----14-12----------------|
|-10-------------/14-|-14--------12-10-|-----------------|-----------14-12-10-------|
|--------------------|-----------------|-----------------|--------------------12-10-|
|--------------------|-----------------|-----------------|--------------------------|
  Q.    E  Q   E  E    H.      S E  E    Q   E   E H       Q.  E  E  E  E  E  E  E
                     _____    _____
                    |  3  |  |  3  |
|-----------------|-------------12-14-|
|-----12-12-------|(12)12-14-15-------|
|-8---------------|-------------------|
|-----------------|-------------------|
  Q   E  E  H       Q  Q  Q  Q  Q  Q

Verse 3

|-14--------------|/12--------------|-----------------|-----------------|
|-----------------|/14--------------|---  11 Bars  ---|-----------------|
|-----------------|-----------------|---    Rest   ---|-----------------|
|-----------------|-----------------|-----------------|-----------1-----|
  W                 W                                   H       E Q.

|-----------------|-----------------|-----------------|-----------------|
|-----------------|-----------------|-----------------|-----------------|
|-----------------|-----------------|-----------------|-----------------|
|(1)--------------|(1)--------------|-1-1-1-1---------|(1)--------------|
  W                 W                 E E E E H         W

Bridge 3

|-----------------|--------5---5----|-----------------|-----------------|
|---------------3-|(3)-3------------|-----------------|-------------0-1-|
|-----------------|-----------------|---x-x-----------|---x-----3-------|
|-----------------|-----------------|---------1-------|-----3-----------|
  H        Q  E E   E  E E Q   E Q    E S S E E H       E E E E E E E E

|-----------------|-3---------------|(3)--------------|
|-2-------------3-|-----------------|-----------------|
|-----------------|-----------------|-----------------|
|-------0---------|-----------------|-----------1-----|
  Q.    E Q.    E   W                 H       E Q.

Bass Solo 3                    ___                           _____
                              | 3 |                         |  3  |
|---------------5/|-7-9-5---/9--7---|-----12-12-----12-14-|-16-17-----------|
|-----------5-----|---------------10|-10------------------|-------17-----14-|
|-3-3-3/7---------|-----------------|---------------------|-----------------|
|-----------------|-----------------|---------------------|-----------------|
  E E E Q   Q   E   E E Q.   Q  E E   Q   E  H      S  S    Q  Q  Q  Q.   E
                     _____
                    |  3  |
|-----------------|------------------|
|-12\---3-3-------|----3--2--0---5---|
|-----------------|----------------3-|
|-----------------|------------------|
  Q.    E H         Q  Q  Q

Interlude 1

|-----------------|-----------------|-----------------|-----------------|
|-----------------|-----------------|-----------------|-----------------|
|(3)--------------|(3)----------3---|/1---------------|(1)--------------|
|-----------------|---------------1-|-----------------|-----------------|
  W                 H.          E E   W                 W

                                                        3/4
|-----------------|-----------------|-----------------|-------------|
|-----------------|-----------------|-----------------|-------------|
|-----------------|-----------------|-----------------|-------------|
|-2---------------|-2---------2-2-2-|-3---------------|-3-----------|
  W                 H       E E E E   W                 H.
                                           _____
  4/4                                  5/4|  3  |
|-----19-20--19-/15-|--------------12---|-13-12--------------15/17-|
|-------------------|-------------------|-------13-----13/15-------|
|-------------------|-------------------|--------------------------|
|-------------------|-------------------|--------------------------|
  Q   E  Q   Q   E    H.           Q      Q  Q  Q  Q   E  E  E  E
  w/ Overdub 1*

Verse 4                                            _____
                                                  |  3  |
|-14-----------15-|/12--------------|----------14---------|--------------19-|
|-----------------|-----------------|-15----15------17-15-|/14-----/14------|
|-----------------|-----------------|---------------------|-----------------|
|-----------------|-----------------|---------------------|-----------------|
  H.           Q    W                 H     E  Q    E  E    H       Q.   E
                              _____
                             |  3  |
|(19)-------------|-17--------------------|-----------------|
|-----------------|-------12-14-13-12---8-|(8)--------------|
|-----------------|-----------------------|-----------------|
|-----------------|-----------------------|-----------------|
  W                 H     E  S  S  S  E E   W

|----------|-----------------|
|- 9 Bars -|-----------------|
|-  Rest  -|-----------------|
|----------|-------------3-x-|
             H.          E E

Bridge 4

|-----------------|-----------------|-----------------|---------5-------|
|-----------------|-x-x---2---5/3---|-----------------|-----x-2---------|
|-3-------------x-|-----------------|-----------------|-3-x-------------|
|-----------------|-----------------|-1-------------x-|-----------3-0---|
  H.          E E   E E E Q   E Q     H.          E E   E E E E E E Q

|-----------------|-----------------|-----------3-------|
|---------2-------|-----------------|---------------5-3-|
|-----------------|-1---------------|-1-1---------------|
|(0)--------------|-----------------|-------------------|
  H       H         W                 Q H       Q   S S

Bass Solo 4

|-----12----------|------------------14-16-|-17--19/20--19-15-|-15----------12--|
|-14-----14-------|------------14-17-------|------------------|-----------------|
|-----------------|---14-15-17-------------|------------------|-----------------|
|-----------------|------------------------|------------------|-----------------|
  Q   E  E  H       E E. S  E  E. E. S  S    Q   E  Q   Q  E    H.          Q

|-13--12---------------17-|
|--------13---13-15/17----|
|-------------------------|
|-------------------------|
  Q   E  E Q  E  E  E  E

Verse 5

|(17)-------------|/15--------------|/10--------------|/9---------------|
|-----------------|-----------------|-----------------|-----------------|
|-----------------|-----------------|-----------------|-----------------|
|-----------------|-----------------|-----------------|-----------------|
  W                 W                 W                 W

|/7---------------|-9---------------|-7---------------|(7)--------------|
|-----------------|-10--------------|-8---------------|(8)--------------|
|-----------------|-----------------|-----------------|-----------------|
|-----------------|-----------------|-----------------|-----------------|

|----------|-----------------|
|- 9 Bars -|-----------------|
|-  Rest  -|-----------------|
|----------|-------------3-3-|
             H.          E E

Bridge 5

|-----------------|---------5-------|-------2---------|-----------------|
|---------2-2-5-5-|-----------5-2---|-----------5-2---|-----------------|
|-3-3-3-3---------|---------------3-|---------------3-|---------------2-|
|-----------------|-----------------|-----------------|---------0-3-5---|
  E E E E E E E E   H       E E E E   Q   E.S E E E E   H       E E E E

|-----------------|-----------------|-----------------|-----------------|
|/2---------------|-----------------|-----------------|-----------------|
|-----------------|/1---------------|-1---1-1---1-1-1-|(1)1-1-1---1-1-1-|
|---------0-------|-----------------|-----------------|-----------------|
  H       H         W                 Q   E Q   E E E   E E E Q   E E E

|-----------------|
|-----------------|
|-1---------------|
|-----------1-----|
  H       E Q.

Outro

|-----------------|-------9---------|-----12---------|-12----9---------|
|-----------------|-----------12-10-|-9------------9-|-----------12-10-|
|-----------------|-----------------|----------------|-----------------|
|-----------------|-----------------|----------------|-----------------|
  W                 H   E Q   S  S    Q   E E Q.   E   H   E Q   S  S  
  w/Overdub 2*

|-----12----------|(12)--14-12--14--|/9---------------|-----------------|
|-8---------------|-----------------|-----------------|-----------------|
|-----------------|-----------------|---------3-3-3-3-|-3---------------|
|-----------------|-----------------|-----------------|---------------1-|
  Q   E E H         Q.   E  Q   Q     H       E E E E   H.          E E


|-----------------|-----------------|-----------------|-----------------|
|-----------------|-----------------|---------4-------|-------4---------|
|-1---------------|-1-1-1-----1-1---|-----------------|-----------------|
|-----------------|---------------1-|-2-----------2-2-|-2---2-------2-0-|
  W                 E E Q.    E E E   H       Q   E E   Q   E E Q   E E

                    3/4
|-----------------|-------------|
|-5---------------|-------------|
|-----------------|-------------|
|-3---3---3---3---|-3-3-3-------|
  Q   Q   Q   Q     E E H

  4/4
|----19-20----19--|-15--------12-13-|---12------------|---15-17--15--12-|
|-----------------|-----------------|-------13--------|---17-18--17--13-|
|-----------------|-----------------|-----------------|-----------------|
|-----------------|-----------------|-----------------|-----------------|
  Q  E  Q.    Q     H.        E  E    E Q   E  H        Q E  Q   Q   E   
  w/ Overdub 3*

|(12)----------17-|(17)-15--12------|(12)-------------|-----------------|
|(13)-------13-17-|(17)-17--13------|(13)-------------|-----------------|
|-----------15----|-----------------|-----------------|-----------------|
|-----------------|-----------------|-----------------|-----------------|
  H.        E  E    E   Q   H     E   W                 W


|-----------------|-----------17-17-|-17-15-13-13---15----|
|-----------------|-----------------|---------------------|
|-----------------|-----------------|---------------------|
|-----------------|-----------------|---------------------|
  W               | H.        E  E    E  E  E  Q    Q.
   _____
  |  3  |
|--------------------|-----------------||
|-12-12-12-/15-------|-----------------||
|--------------/11---|/6--/3-----------||
|--------------------|--------/1-------||
  Q  Q  Q   Q   Q      Q   Q   H


*Overdub 1

  4/4                                     5/4
|-------------------|-------------------|--------------------------|
|-------------------|---6---------------|(6)-----------------------|
|-------------------|-------------------|--------------------------|
|-4-----------------|-4-----------------|(4)-----------------------|
  W                   E.S S H        E    W

*Overdub 2

|-5---------------|(5)--------------|-----------------|-----------------|
|-----------------|-----------------|-5---------------|(5)--------------|
|-3---------------|(3)--------------|-----------------|-----------------|
|-----------------|-----------------|-3---------------|(3)--------------|
  W                 W                 W                 W

|-----------------|-----------------|-----------------|-----------------|
|-----------------|-----------------|-----------------|-----------------|
|-1---------------|(1)--------------|-3-------3-3-3-3-|-----------------|
|-----------------|-----------------|-----------------|-----------------|
  W                 W                 W

*Overdub 3

|-----------------|-----------------|-----------------|-----------------|
|-----------------|-----------------|-----------------|-----------------|
|-----------------|-----------------|-----------------|-----------------|
|-4---------------|(4)--------------|(4)--------------|(4)--------------|
    W                 W                 W                 W

|-----------------|-----------------|-----------------|-----------------|
|-----------------|-----------------|----------6------|(6)--------------|
|-----------------|-----------------|-----------------|-----------------|
|(4)--------------|(4)--------------|(4)--------------|---------------4-|
  W                 W                 H      S S Q.     H.

|-----------------|-----------------|---------------------|
|-----------------|-----------------|---------------------|
|-----------------|-----------------|---------------------|
|(4)--------------|-4---------------|(4)------------------|
  W                 W


Key to rhythm notations:

W - Whole Note/Semi-Brieve
H - Half Note/Minim
Q - Quarter Note/Crotchet       Q. - Dotted Quarter Note
E - Eight Note/Quaver           E. - Dotted Eight Note
S - Sixteenth Note/Semi-Quaver  S. - Dotted Sixteenth Note
Добавлено: 01.08.2015
Другие материалы по этой песне:
  • Аккорды и текст

Страница создана 29.02.2012
http://primanota.ru/joni-mitchell/refuge-of-the-roads-chords.htm
Привет, Гость.
Предлагаем пройти революционный курс по гитаре.
Подарок от PrimaNota.Ru, забирай!