PrimaNota.ru - самый крупный в мире бесплатный архив песенных текстов, аккордов, табулатур и нот


Joni Mitchell - In France They Kiss On Main Street - текст песни, бас-таба, видео

Регистрация Запомнить меня
Войти через:  Facebook Google Twitter Vk Yandex Mail.ru

Joni Mitchell - In France They Kiss On Main Street - текст песни, бас-таба, видео

Печатать
Просмотров: 44
Авторы музыки: Joni Mitchell
Авторы текста: Joni Mitchell
                           In France They Kiss On Main Street
                                    Joni Mitchell

Bass                                                          Joni Mitchell

Intro
 
5/4
|---------------------|-----9---------------|---------------------|
|---------------------|---------------------|-------11------------|
|---------------------|-7-7-----------------|----------10\7-------|
|---------------------|---------------------|---------------------|
  W               Q     E S S W               Q  Q  S  E. H

|---------------------|---------------------|
|---------------------|---------------------|
|---------------------|---------------------|
|-------------0-------|(0)------------------|
  H.          H         W               Q

Verse 1

2/2
|---------------4-|-4---------------|---------------4-|(4)--------------|
|-----------------|---------------1-|-2---------------|-----------------|
|-2---------------|-----------2-4---|-----------------|-------------2-1-|
|-----------------|-----------------|-----------------|-----------0-----|
  H.          E E   H       E E E E   H.          E E   H       E E E E

|---------------2-|(2)--------4-----|-----------------|---4-6---4-------|
|-------------2---|-----------------|---------------2-|(2)--------------|
|-0---------------|-----------------|-----------2-4---|-----------------|
|-----------------|-----------------|-0---------------|-----------0-1-2-|
  H.          E E   H       E Q.      H       E E E E   E E Q   E E E E

|-----------------|-----------------|-----------------|-----------------|
|-----------------|-5-5-----5-----5-|-4-------------4-|-4---4-----4-4---|
|---------------5-|-------5---------|-----------4-6---|---4-------------|
|-3---------------|-----------------|-----------------|-----------------|
  H.          E E   E Q   E Q.    E   H       E E E E   E E Q.    E Q

|-----------------|-----------------|-----------------|-------4---------|
|-5-----------5-7-|-5---------4-----|-2---------------|---2----/2-------|
|-----------------|-----------------|---------------2-|-4---------------|
|-----------------|-----------------|-----------------|-----------------|
  H.          E E   H       E Q.      H.          E E   E Q   E H

|-----------------|---------9-11----|-----------------|---4-------------|
|---------7-------|-----------------|-2-------------2-|-2---------5-4-2-|
|-0-----7-------7-|-------7------0--|-----------2-4---|-----------------|
|-----------------|-5---------------|-----------------|-----------------|
  Q.    E Q.    E   Q.    E E E  Q    H       E E E E   E Q.    E E E E

|-----------------|-----------4-----|-----------------|-----------------|
|-----------------|-----------------|-2---------------|-----------------|
|-4-------------4-|-2---------------|---------2-4-2---|-----------------|
|-----------------|-----------------|---------------4-|-3---0-----2-3-4-|
  H.          E E   H       E Q.      Q   Q   E E E E   Q   Q.    E E E

|-----------------|-----------------|---------------4-|-4-----4---------|
|---------------7-|(7)-4-7--7-6---4-|-2-----2---------|-----------------|
|-----4---7---7---|-----------------|---------2-------|-----------------|
|-5---------------|-----------------|-----------------|-----------------|
  Q   Q   Q   E E   E  E Q  E Q   E   Q.    E Q.    E   Q.    E H

Chorus 1

|-----------------|-----------------|-----------------|-----------------|
|-----------------|-----------------|-5---------------|-2-----------2---|
|-------7---------|---5-------------|---------5-------|-----------------|
|-7-----------5---|(5)------3-------|-----------------|-----------------|
  Q.    E Q   Q     E E Q   H         H       H         H.          Q

|-----------------|-----------------|-----------------|
|-2-2---2---------|-----------------|-2---------------|
|---------4-2-----|-----------------|-------------2---|
|-------------0---|-0-----0-0---0---|-----------------|
  E Q   E E E Q     Q.    E Q   Q     H.          Q

Verse 2

|-4---------------|-4-------------4-|-----------------|-----------------|
|-----------------|-----------------|-2---------2-----|-----------------|
|-----------------|---2-------------|-------------2---|-------------2-1-|
|-----------------|-----------------|---------------4-|-0---------0-----|
  W                 E E H       E E   H       E E E E   H       E E E E

|-----------------|-----------------|-------9---------|-----4-----------|
|---------------7-|(7)-------/9-----|---7-9---9-------|-------2---2-3-4-|
|-0-----------7---|-----------------|-----------7-----|-----------------|
|-----------------|-----------------|-------------7-0-|(0)--------------|
  H.          E E   H       E Q.      E E E E E E E E   Q   E Q   E E E

|-----------------|-----------------|-----------------|-----------------|
|-5-----5---------|---------12-9----|-----------------|-----------------|
|---------5-----5-|-5/---10------10-|-9-----9---------|-9---------------|
|-----------------|-----------------|---------9-------|-----------------|
  Q.    E Q.    E   Q.   Q  E  E E    Q.    E H         W

|------/9---7-----|-----------------|-------4---------|-----------------|
|-5-------------5-|-5-----5-4-------|-2-------2-----2-|(2)--2-----2-----|
|-----------------|-----------------|-----------------|---2---------4-2-|
|-----------------|-----------------|-----------------|-----------------|
  Q.    Q   Q   E   Q.    E H         Q.    E Q.    E   E E Q.    E E E

|---------------2-|(2)--2---2-------|-----------------|-----------------|
|---------2---2---|---4-------4-----|-2---------------|-----------2-----|
|-0---4-----------|-----------------|---------2-4-2---|---------------4-|
|-----------------|-----------------|---------------5-|-4-0-0-----------|
  Q   Q   Q   E E   E E Q   E Q.      H       E E E E   E E Q   E Q   E

|-----------------|-----------4-----|-----------------|-----------------|
|-----------------|-----------------|-2---------------|-----------------|
|-4-------------4-|-2---------------|-----------2-4-2-|-7-----7---7---7-|
|-----------------|-----------------|-----------------|-----------------|
  H.          E E   H       E Q.      H       E E E E   Q.    Q   Q   E

|-----------------|-----------------|-----------------|-----------------|
|-----5---7---7---|-----5-7---9---7-|-2-------2-----2-|(2)--------------|
|---7---7---------|---7-------------|-----2-4---2-4---|-----------------|
|-5---------------|-5---------------|-----------------|-----------------|
  E E E E Q   Q     E E E Q   Q   E   Q   E E E E E E   W

Chorus 2

|-----------------|-----------------|-----------------|-----------------|
|-----9-----------|-----------------|-5---------------|-----9-----------|
|---9---7---------|---5-------------|---------5-------|---9---7-------7-|
|-7-----------5---|(5)------3-------|-----------------|-7-----------5---|
  E E E E Q   E E   E E Q   H         H       H         E E E E Q   E E

|-----------------|-----------------|
|-7---------------|-5---------------|
|---5-------------|---------5-------|
|---------3-------|-----------------|
  E E Q   H         H       H

Solo

|---------------9-|(9)9-7-----------|-------------7-9-|(9)9-7-----------|
|-----------------|-------9-7---9---|-----6-6-9-9-----|-------9-7-7-9-9-|
|-7-----7---------|-----------------|-7-7-------------|-----------------|
|---------7-7-----|-----------------|-----------------|-----------------|
  Q.    E E Q   E   E E E E Q   Q     E E E E E E E E   E E E E E E E E

|---------------9-|(9)9-7-----------|-------------7-9-|(9)9-7-----------|
|-----6-6-9-9-----|-------9-7-7-9-9-|-----6-6-9-9-----|-------9---7---9-|
|-7-7-------------|-----------------|-7-7-------------|-----------------|
|-----------------|-----------------|-----------------|---------5---7---|
  E E E E E E E E   E E E E E E E E   E E E E E E E E   E E E E E E E E

Verse 3

|---------------4-|-----------------|-13--------------|-----------------|
|-----------------|-----------------|-----------------|-----------------|
|-----------------|-2-----------2---|-----------------|-------------2-1-|
|-7---------------|---------------0-|---------------0-|-----------0-----|
  H.          E E   H.          E E   H.          E E   H       E E E E

|-----------------|-----------------|-----------------|-----------------|
|---------------7-|(7)--7-----7---9-|---------------2-|(2)--2-----2---4-|
|-------------7---|---7-------------|-7---------2-4---|---2-------------|
|-5---------------|-----------------|-----------------|-----------------|
  H.          E E   E E Q.    Q   E   H       E E E E   E E Q.    Q   E

|-----------------|-----------7-4---|---------------6-|-----------------|
|-5-----5-------5-|-------5-------7-|-4-----4---------|-4-----4-4-----4-|
|---------5-------|---5-------------|---------4-------|-----------------|
|-----------------|-3---------------|-----------------|-----------------|
  Q.    E Q.    E   E Q   Q   E E E   Q.    E Q.    E   Q.    E Q.    E

|------/9---7-----|-----------------|-------4---------|-----------------|
|-5-------------5-|-5-----5-4-----4-|-2-------------2-|-2---------2-----|
|-----------------|-----------------|-----------------|---------4---4-2-|
|-----------------|-----------------|-----------------|-----------------|
  Q.    Q   Q   E   Q.    E Q.    E   Q.    H       E   H       E E E E

|---------2-------|-----------------|-----------------|---4-------------|
|-------2-------2-|-----------------|---------------2-|-2---2-----------|
|-0---------------|-0-----0-0---2---|-----------2-4---|-----------4---2-|
|-----------------|-----------------|-0---------------|-----------------|
  Q.    E Q.    E   Q.    E Q   Q     H       E E E E   E E Q.    Q   E

|-----------------|-----------4-----|-----------------|-----------------|
|-----------------|-----------------|-2-----2---------|-------------2---|
|-4-------------4-|-2---------------|---------2-----2-|---------2-------|
|-----------------|-----------------|-----------------|-0---------------|
  H           E E   H       E Q.      Q.    E Q.    E   H       Q   Q

|-----------------|-----------------|-----------------|-----------------|
|-------5-7---7---|-------7-----4---|-2-----2-----2---|---------2-------|
|---4-7-----------|---4-7-----------|---------2-4---4-|-----------------|
|-5---------------|-5---------------|-----------------|-4-0-------------|
  E E E E Q   Q     E E E Q.    Q     Q.    E E E E E   E E Q   H

Chorus 3

|-----------------|-----------------|-----------------|-----------------|
|-----9-----------|-7---------------|-5---------------|-2---------------|
|---9---7-------7-|---5-------------|---------5-------|-----------------|
|-7-----------5---|---------3-------|-----------------|---------0-----0-|
  E E E E Q   E E   E E Q   H         H       H         H       Q.    E

|-----------------|-----------------|-----------------|-----------------|
|-----------------|-2-----2-----2-2-|(2)--2---2-------|-----9-----------|
|-----------------|---------2-4-----|---2---2---------|---9---7-------7-|
|(0)--0-------0---|-----------------|-----------------|-7-----------5---|
  Q   H       Q     Q.    E E E E E   E E E E H         E E E E Q   E E

|-----------------|-----------------|-----------------|-----------9-----|
|-7---------------|-5---------------|-----------------|-------9-------9-|
|---5-------------|---------5-------|---------2-0---7-|(7)--------------|
|---------3-------|-----------------|-0-0-0-------2---|-----------------|
   E E Q  H         H       H         E E Q   E E E E   Q.    Q   Q   E

|-----------------|-----------------|-------16------------|-14--------------|
|-2-------2-------|-2-----2-2-------|----16----14------14-|----12-----------|
|-----4---------2-|-----------------|-14------------12----|-----------------|
|-----------------|-----------------|---------------------|---------3-------|
  Q   Q   Q.    E   Q.    E E         E  E  E  E Q  E  E    E  E Q  H

|-----------------|-----------------||
|-5---------------|-----------------||
|---------2-------|(2)--------------||
|-----------------|-----------------||
  H       H         W

Key to rhythm notations:

W - Whole Note/Semi-Brieve
H - Half Note/Minim
Q - Quarter Note/Crotchet       Q. - Dotted Quarter Note
E - Eight Note/Quaver           E. - Dotted Eight Note
S - Sixteenth Note/Semi-Quaver  S. - Dotted Sixteenth Note
Добавлено: 04.09.2015
Другие материалы по этой песне:
  • Аккорды и текст

Страница создана 16.05.2012
http://primanota.ru/joni-mitchell/in-france-they-kiss-on-main-street-chords.htm
Привет, Гость.
Предлагаем пройти революционный курс по гитаре.
Подарок от PrimaNota.Ru, забирай!