PrimaNota.ru - самый крупный в мире бесплатный архив песенных текстов, аккордов, табулатур и нот


Joni Mitchell - Harrys House Centerpiece - бас-таба, видео

Регистрация Запомнить меня
Войти через:  Facebook Google Twitter Vk Yandex Mail.ru

Joni Mitchell - Harrys House Centerpiece - бас-таба, видео

Печатать
Просмотров: 23
Авторы музыки: Johnny Mandel, Joni Mitchell
Авторы текста: Jon Hendricks, Joni Mitchell
                              Harry's House/Centerpiece
                                    Joni Mitchell

Bass                                                          Joni Mitchell
                                                              Johnny Mandel
                                                              Jon Hendricks

Tempo 111bpm

Intro

3 Bars Rest
                                                         2/4
|------------------|-----------8p7---|-8p7---8p7---8p7-|---------|
|---   3 Bars   ---|---------------8-|-----8-----8-----|-8-5-----|
|---    Rest    ---|-----------------|-----------------|-----8-6-|
|------------------|-----------------|-----------------|---------|
                     H       E E E E   E E E E E E E E   E E E E

Verse 1

|-----------------|---------------7-|-----------------|---8-8-10--------------|
|-----------------|-----------3-5---|-3-------------5-|-6--------8-10-6-----3-|
|-3-------------5-|-6---------------|-----------------|-----------------------|
|-----------------|-----------------|-----------------|-----------------------|
  H.           E E  H       E E E E   H.          E E   E E S S  S S  Q.    E

|-----------------|-----------------|-----------------|-8-----8-----8---|
|-5-3-------------|-----------------|---8-------8-----|-----------------|
|-----5---------5-|-6---------------|-6---6-----------|-----------------|
|-------3-3-------|-----------3---6-|-----------------|-----------------|
  E E E E E E E E   H       E Q   E   E E E Q   Q.      Q.    Q.    Q

|(8)8-----8-------|-----------------|---------------5-|-------5-----------|
|-----------------|---5-----5-------|-------------6---|-3---------3---3-5-|
|-------------6-5-|-3-----3---3-4-5-|-6---------8-----|-------------------|
|-----------------|-----------------|-----------------|-------------------|
  E Q.    Q.  S S   E E E E E E E E   H       E E E E   Q.    Q   Q   S S

|-----------------|---------------------|-----------8-------|---------------5-|
|-----------6-5---|-----3---------------|-------8-------8---|-----------8-----|
|-------6-------6-|---5---5-5-5-----5---|-6---------------6-|-6-----6/8-------|
|-4---------------|-3-----------3-3---3-|-------------------|---6/8/----------|
  Q.    Q   E E E   E E E E S T S.E S S   Q.    Q   Q   S S   E E E E E Q   E

|-8-----7-----8---|(8)8-----8-------|-------5-------5-|(5)--3-----------|
|-----------------|-----------------|-----------------|-----------------|
|-----------------|-------------6-5-|-3---------3-----|---3-------3-4-5-|
|-----------------|-----------------|-----------------|-----------------|
  Q.    Q.    Q     E Q.    Q.  S S   Q.    Q   Q   E   E E Q.    E E E

|-----------------|-----------------|-------5-5-5-5---|-------5-5-5-5-----|
|-------8---------|-----------3---5-|-----------------|-------------------|
|-6---------------|---1---5---------|-3---------------|-3-----------------|
|---------------1-|-3---------------|-----------------|-----------------3-|
  Q.    E Q.    E   E Q   Q   Q   E   Q.    S S E Q.    Q.    S S E Q   E

|---------------8-|-8---------------|
|-------8---------|-------8---------|
|-6---------------|-----------6-----|
|-----------------|-----------------|
  Q.    E Q.    E   Q.    Q   Q.

Interlude 1

|---5-----5-----5-|(5)--5-----5-----|-5-----5-----5---|---5-------------|
|-----------------|-----------------|-----------------|-----------------|
|-3-----3-----3---|---3-----3-----3-|-----3-----3-----|-3-----3-------1-|
|-----------------|-----------------|-----------------|-----------1-3---|
  E Q   E Q   E E   E E Q   E Q   E   Q   E Q   E Q     E Q   Q   E E E

Verse 2

|-------5---------|-----------------|-------------------|-----------------|
|-----------------|-------8---------|-----------3---4-5-|-6---------------|
|-3-------3-----5-|-6-------6-------|-------3-----------|-------6---------|
|-----------------|-------------3-2-|-1-----------------|-----------4---1-|
  Q.    E Q.    E   Q.    E Q   S S   Q.    Q   Q   S S   Q.    Q   Q   E

|-----------------|------/10-/9------|-----------------|-8-----8-----8---|
|-----3-5---------|-----8-------8-10-|-8---------8-----|-----------------|
|---5-------------|---6--------------|-------6---------|-----------------|
|-3---------------|------------------|---6-------------|-----------------|
  E E E E H         E E E Q   Q S S    E Q   Q   Q.      Q.    Q.    Q

|(8)8-----8-------|-------5---------|-----------------|-----------------|
|-----------------|-----------------|---------------5-|-3-----3---------|
|-------------6-5-|-3-----------3-5-|-6---------------|-----------------|
|-----------------|-----------------|-----------------|-----------------|
  E Q.    Q.  S S   Q.    H     S S   H.          E E   Q.    E H

|-----------8-5-3-|-----------------|-----------------|-----------------|
|---------6-------|-5---------3-----|-------8---------|---------5-8-----|
|-----3-6---------|-------------5---|-6-------------6-|-6-----8---------|
|-4-6-------------|---------------3-|-------------6---|-----------------|
  E E E E E E E E   H       E E E E   Q.    Q   E E E   Q.    E E Q.

                                                        2/4
|-8-----8-----8---|(8)8-----8-------|-------5-5-------|---------|
|-----------------|-----------------|-----------------|---------|
|-----------------|-------------6-5-|-3-------------3-|-3---4-5-|
|-----------------|-----------------|-----------------|---------|
  Q.    Q.    Q     E Q.  E Q   S S   Q.    E Q.    E   Q   E E

  4/4
|-----------------|-----------------|-------5---------|-----------------|
|-----------8-----|-----------------|-----------------|-----------------|
|-6---------------|-6-----6---6-5-4-|-3---------------|-3---3-1-3-3-4-5-|
|---------------6-|-----------------|---------------3-|---3-------------|
  H       E Q   E   Q.    Q   E E E   Q.    E Q.    E   E E E E E E E E

|-----------------|---------------5-|
|-----------------|-----------5-8---|
|-6-------6-------|-----5-6-8-------|
|-------6-------6-|-6-8-------------|
  Q.    E Q.    E   E E E E E E E E

Interlude 2

|---5-----5-----5-|(5)--5-----5-----|-5-----5-----5---|---5-----5-----5-|
|-----------------|-----------------|-----------------|-----------------|
|-3-----3-----3---|---3-----3-----3-|-----3-----3-----|-3-----3-----3---|
|-----------------|-----------------|-----------------|-----------------|
  E Q   E Q   E E   E E Q   E Q   E   Q   E Q   E Q     E Q   E Q   E E 

|(5)--5-----5-----|-5-----5-----5---|---5-----5-----5-|(5)--5-----------|
|-----------------|-----------------|-----------------|-----------------|
|---3-----3-----3-|-----3-----3-----|-3-----3-----3---|---3-----3-----1-|
|-----------------|-----------------|-----------------|-----------1-3---|
  E E Q   E Q   E   Q   E Q   E Q     E Q   E Q   E E   E E Q   E E E E

Verse 3

|-------5---------|-----------------|------10-------------|-----------------|
|-----------------|-----8---------8-|---10-----10---------|-----------6-3---|
|-3---------3---3-|-6-----6---6-----|-8-----------8-------|-------6-------6-|
|-----------------|-----------------|---------------1-2-3-|-4---------------|
  Q.    Q   Q   E   Q   E Q   Q   E   E Q  E.  S  E E S S   Q.    Q   E E E

|-------------------|-----------------|-----------------|-8-----8-----8---|
|---------5---------|-----------8-5---|-----------8/----|-----------------|
|-------5---5-----5-|-6-------6-----6-|(6)----6---------|-----------------|
|-3-----------3-----|-----------------|---6-8-----------|-----------------|
  Q.    E S S E S S   H       E E E E   E E E E E Q.      Q.    Q.    Q

|(8)8-----8-------|-------5---------|-12\-------3-----|-----------------|
|-----------------|-----------------|-13\---1-----3-1-|-3-------------3-|
|-------------6-5-|-3---------------|-----------------|-----------3-----|
|-----------------|-----------------|-----------------|-------1---------|
  E Q.    Q.  S S   Q.    E H         Q.    Q   E E E   Q.    Q   Q   E

|-------------------|-----------------|-------------10--|-10--8-----------|
|---------------6---|-------5---------|-----------8-----|---8-----8-5-----|
|-------6---------6-|-----5-----5---5-|-6-----6---------|---------------3-|
|-4---------4-------|-3-----------3---|-----------------|-----------------|
  Q.    Q   Q   S S   Q   E Q   E E E   Q.    Q   E Q     E E Q   E Q   E

|-8-----8-----8---|(8)8-----8-------|
|-----------------|-----------------|
|-----------------|---------------3-|
|-----------------|-----------------|
  Q.    Q.    Q     E Q.     Q.   E

Interlude 3

Tempo 75bpm
       ___
      | 3 |
E E = E   Q

|-----5---5---5---|-5---5---5---5---|-5---5---5---5---|-5---5---5---5---|
|-----------------|-----------------|-----------------|-----------------|
|-3-3---3---3---3-|---3---3---3---3-|---3---3---3---3-|---3---3---3---3-|
|-----------------|-----------------|-----------------|-----------------|
  E E E E E E E E   E E E E E E E E   E E E E E E E E   E E E E E E E E

|-5---------------|-----------------|
|-----------------|-----------------|
|---3-3---1---1---|-0---0-----------|
|-----------------|---------4---4---|
  E E Q   Q   Q     Q   Q   Q   Q

Centerpiece Verse 1

|-----------------|-----------------|-----------------|-----------------|
|-5-5-3-3-2---0---|-----------------|-----------------|-----7---5-------|
|-----------------|-3---------------|---5-2---3---4---|-5---------5-2---|
|-----------------|-----0---1---2-3-|-3---------------|-----------------|
  E E E E Q   Q     Q   Q   Q   E E   E E Q   Q   Q     Q   Q   Q E E

|-----------------|-----------------|-----------------|-------------1---|
|-----2---3---4-5-|-----5-----------|-----------------|-0---1---2-------|
|-3---------------|-3-----3-3---4-5-|---------2---3---|-----------------|
|-----------------|-----------------|-3---5-----------|-----------------|
  Q   Q   Q   E E   Q   E E Q   E E   Q   Q   Q   Q     Q   Q   Q   Q

|-2---------------|-----------------|-----------------|-2-----2---------|
|---------2---1---|-0-0-------------|-------------2---|---------0---0-0-|
|-----0-----------|-----3---2---0---|-----------------|-----0-----------|
|-----------------|-----------------|-3---1---0-------|-----------------|
  Q   Q   Q   Q     E E Q   Q   Q     Q   Q   Q   Q     Q   E E Q   E E

Centerpiece Solo

|-----------------|-----------------|-----------------|-----------------|
|-----------------|-----------------|-----------------|-----3---5-------|
|---------2---5---|-3-------3---4-5-|-----2---3---4---|-5---------5-2---|
|-3---5-----------|-----3-----------|-3-5-------------|-----------------|
  Q   Q   Q   Q     Q   Q   Q   E E   E E Q   Q   Q     Q   Q   E E Q

|-----------------|-----------------|-----------------|-----------------|
|-----------------|-----2---3---4---|-5-5-2---0-------|-----------------|
|-3-3---------5---|-3---------------|------------/2---|-------------2-1-|
|-----0---3-------|-----------------|-----------------|-3---1---0-------|
  E E Q   Q   Q     Q   Q   Q   Q     E E Q   Q   Q     Q   Q   Q   E E
                                           ___
                                          | 3 |
|---------2-------|-----------------|-------------------|-----2---------2-|
|-----2-----------|-----------------|---------------2---|---------0---0---|
|-0---------0-4---|-5---3---2---0---|-----------------1-|-0-----0---0-----|
|-----------------|-----------------|-3-3-3-2-1-0-------|-----------------|
  Q   Q   E E Q     Q   Q   Q   Q     E E E E E Q   E E   Q   E E E E E E

Centerpiece Verse 2
                                                             ___
                                                            | 3 |
|-----------------|-----------------|-----------------|-------7-----------|
|-5---------------|-----------2-3-4-|-5---------------|-----7---7-5-------|
|-----5-5-----2---|-3-------3-------|---5-2---3---4---|-------------------|
|---------3-5-----|-----3-----------|-----------------|-3-------------3---|
  Q   E E E E Q     Q   Q   E E E E   E E Q   Q   Q     Q   E E E Q   Q

|-----------------|-----------------|-----------------|-----------------|
|-----------------|-----------2-3-4-|-5-5-3-----------|-------------2---|
|-3-3---------5---|-3-------3-------|---------5-0-2---|-----------------|
|-----0---3-------|-----3-----------|-----------------|-3-0-1---0-----3-|
  E E Q   Q   Q     Q   Q   E E E E   E E Q   E E Q     E E Q   Q   E E
                                         ___                 ___
                                        | 3 |               | 3 |
|-----------------|----/7-----------|-----------------|-------------------|
|-----------------|---------------3-|-5-5-3-----------|-------------------|
|-0---2---3---4---|-5-------5---5---|-------5-----2-1-|-0---2-3-4-5---5---|
|-----------------|-----------------|---------3-------|-------------------|
  Q   Q   Q   Q     Q   Q   Q   E E   E E E E Q   E E   Q   E E E Q   Q

Interlude 3

|-----------------|-----------------|-5-----5-----5---|---5-----5-----5-|
|-----------------|-----------------|-----------------|-----------------|
|-----------------|---------------3-|-----3-----3-----|-3-----3-----3---|
|-3---3---3---3---|-3---3---3---3---|-----------------|-----------------|
  Q   Q   Q   Q     Q   Q   Q   E E   Q   E Q   E Q     E Q   E Q   E E

|(5)--5-----5-----|-5-----5-----5---|
|-----------------|-----------------|
|---3-----3-----3-|-----3-----3-----|
|-----------------|-----------------|
  E E Q   E Q   E   Q   E Q   E Q



Tempo 111bmp

Q = Q

|-9-----9-----9---|(9)9-----9-------|
|-----------------|-----------------|
|-----------------|-------------6-5-|
|-----------------|-----------------|
  Q.    Q.    Q     E Q.    Q.  S S

Harry's House

Verse 4

|---5-------5-----|-5-----------------|-----------------|-----------------|
|-----------------|-------------------|-----------------|-----------8-5---|
|-3-----3-3-----3-|-----3-3-3-3-3-4-5-|-6-------6-----6-|(6)----6-6-----6-|
|-----------------|-------------------|-----------6-8---|---6-8-----------|
  E Q   E E Q   E   Q   E S S E E E E   H       E E E E   E E E E E E E E

|-------5---------|-----------3---3-|-------3---------|-----------3-----3-|
|-----------------|---------5---5---|-1---------------|-1----/5-----5-6---|
|-3-------------3-|-3---------------|---------------1-|-------------------|
|-----------------|-----------------|-----------------|-------------------|
  Q.    E Q.    E   H       E E E E   Q.    E Q.    E   Q.    Q   E S S E

                                                            Repeat to Fade
|-----------------||----5-----5-----5-|(5)--5-----5-----|-5-----5-----5---||
|-1-----------1-0-||o-----------------|-----------------|----------------o||
|-----------------||o-3-----3-----3---|---3-----3-----3-|-----3-----3----o||
|-----------------||------------------|-----------------|-----------------||
  H.        E S S     E Q   E Q   E E   E E Q   E Q   E   Q   E Q   E Q

Key to rhythm notations:

W - Whole Note/Semi-Brieve
H - Half Note/Minim
Q - Quarter Note/Crotchet       Q. - Dotted Quarter Note
E - Eight Note/Quaver           E. - Dotted Eight Note
S - Sixteenth Note/Semi-Quaver  S. - Dotted Sixteenth Note
Добавлено: 04.09.2015
Вам также может быть интересно:
Другие материалы по этой песне:
  • Аккорды и текст

Страница создана 04.09.2015
http://primanota.ru/joni-mitchell/harrys-house-centerpiece-2-chords.htm
Привет, Гость.
Предлагаем пройти революционный курс по гитаре.
Подарок от PrimaNota.Ru, забирай!