PrimaNota.ru - самый крупный в мире бесплатный архив песенных текстов, аккордов, табулатур и нот


Joni Mitchell - Black Crow - текст песни, бас-таба, видео

Регистрация Запомнить меня
Войти через:  Facebook Google Twitter Vk Yandex Mail.ru

Joni Mitchell - Black Crow - текст песни, бас-таба, видео

Печатать
Просмотров: 127
Авторы музыки: Joni Mitchell
Авторы текста: Joni Mitchell
                                      Black Crow
                                    Joni Mitchell

Bass                                                          Joni Mitchell

Tuning Eb Ab Db Gb

In 2/2

Intro

|-----------------|-----------------|-----------------|-----------------|
|-----------------|-----------------|-2---------------|(2)--------------|
|-----------------|-----------------|-----------------|-----------------|
|-----------------|-----------------|-0---------------|(0)--------------|
  W                 W                 W                 W

|-----------------|-----------------|-----------------|-----------------|
|(2)-------0------|(2)--------------|(2)--------------|(2)--------------|
|--------2--------|-----------------|-----------------|-----------------|
|(0)-------0------|(0)--------------|(0)--------------|(0)--------------|
  H      S S H.     W                 W                 W

Verse 1

|------------<5>--|-----------------|-----------------|-----------------|
|-2-2--------<5>--|-----------------|-2-0-2-----------|---------0---2-0-|
|-----------------|-----------------|-----------------|-------2---------|
|-----0-0---------|-----------------|---------------0-|-0-2-3-----------|
  E E E E Q   Q     W                 E E E H       E   E E E E Q   E E

|------------<5>--|-----------------|-----------------|-4---------------|
|-2-2--------<5>--|-----------------|-----------------|-----------------|
|-----------------|-----------------|-2---2---------2-|-------2-------0-|
|-----0-0---------|-----------------|-----------------|-----------------|
  E E E E Q   Q     W                 Q   H       E E   Q.    E Q.    E

|-----------------|-----------------|-----------------|-----------------|
|-----------------|-------5---4-----|-----------------|-----------------|
|---------------0-|-1-3-5-------5-x-|-3---3-----------|-3---3-------2-0-|
|-3---3-----------|-----------------|---3-----------3-|---3-------------|
  Q   Q   Q.    E   E E E Q   E E E   E E E H       E   E E E Q.    E E

|-----------------|-----------------|-----------------|-----------------|
|-----------------|-----------------|-----------------|-------------5-5-|
|-5---5-----------|---------------3-|-5---5-----------|---------5-------|
|-----------------|-------0---3-5---|-----------------|-----------------|
  E E H.            Q.    Q   E E E   E E H.            H       E E E E

|-----------------|-----------------|-----------------|-----------------|
|-----------------|-----------------|-----------------|-----------------|
|-3---3-----------|-3---3---------5-|-5---5-----------|-5---5-------5-5-|
|-------------3---|---3-------------|---------------5-|-----------------|
  Q   Q   Q   Q     E E H     E S S   Q   H       E E   Q   H       E E 

Interlude 1

|-----------------|-----------------|-----------------|-----------------|
|-2-2-2-----------|-----------------|-2-2-------------|-----------------|
|-----------------|-------2-----5-5-|-----------------|-------2-----5-5-|
|-------0---------|(0)--------------|-----0-0---------|(0)--------------|
  E E E E H         Q.    Q.    E E   E E E E H         Q.    Q.    E E

|-----------------|-----------------|-----------------|-----------------|
|-2-2-------------|-----------------|-2---------------|-----------------|
|-----------------|-------2---5-5---|-----------------|-------2-----5---|
|-----0-0---------|(0)--------------|-----0-----------|(0)--------------|
  E E E E H         Q.    Q.  E Q     E E Q   H         Q.    Q.    Q

Verse 2

|------------<5>--|-----------------|-----------------|-----------------|
|-2-2--------<5>--|-----------------|-2-0-2-----------|-----------------|
|-----------------|-----------------|-----------5---2-|-2-5-0-2---------|
|-----0-0---------|-----------------|-----------------|---------0---3-5-|
  E E E E Q   Q     W                 E E Q.    Q   E   E E E E Q   E E

|------------<5>--|-----------------|-----------------|-4---------------|
|-2-2--------<5>--|-----------------|-----------------|-----------------|
|-----------------|-----------------|-2---2---------2-|-------2-------0-|
|-----0-0---------|---------------2-|-----------------|-----------------|
  E E E E Q   Q     H.          E E   Q   H       E E   Q.    E Q.    E

|-----------------|---------2-------|-----------------|-----------------|
|-----------------|---0---0---0-----|-----------------|-----------------|
|-------------1---|(1)----------3---|-2-3---3---------|-3---3---------x-|
|-3-----3---------|-----------------|---------------3-|---3-------------|
  Q.    Q.    Q     E Q   E E E Q     E Q   Q  Q    E   E E E H       E

|-----------------|-----------------|-----------------|-----------------|
|-----------------|-----------------|-----------------|-------5---------|
|-5---5-----------|-------------3---|-5---5---------5-|-5-5-5-----------|
|-----------------|-------3---5-----|-----------------|-----------------|
  E E H.            Q.    Q   E Q     E E H       E E   E E E E H

|-----------------|-----------------|-----------------|-----------------|
|-----------------|-----------------|-----------------|-3-3---5---------|
|-3---3-----------|-3---3---------4-|-5---5---------x-|-----5-------5---|
|---------------3-|---3-------------|-----------------|-----------------|
  Q   Q       E E   E E H     E S S   Q   H       E E   E E E Q.    Q

Interlude 2

|-----------------|-----------------|-----------------|-----------------|
|-2-2-2-----------|-----------------|-2-2-------------|-----------------|
|-----------------|-------2-----5---|-----------------|-------2-----5-5-|
|-------0---------|(0)--------------|-----0-0---------|(0)--------------|
  E E E E H         Q.    Q.    Q     E E E E H         Q.    Q.    E E

|-----------------|-----------------|-----------------|-----------------|
|-2-2-------------|-----------------|-2-2-------------|-----------------|
|-----------------|-------2-----5---|-----------------|-------2-----5---|
|-----0-0---------|(0)--------------|-----0-0---------|(0)--------------|
  E E E E H         Q.    Q.    Q     E E E E H         Q.    Q.    Q

Verse 3

|------------<5>--|-----------------|-----------------|-----------------|
|-2-2--------<5>--|-----------------|-2-0-2-----------|-------0---2-0-5-|
|-----------------|-----------------|-----------5---2-|-0-0-2-----------|
|-----0-0---------|-----------------|-----------------|-----------------|
  E E E E Q   Q     W                 E E Q.    Q   E   E E E Q   E E E

|------------<5>--|-----------------|-----------------|-4---------------|
|-5-2--------<5>--|-----------------|-----------------|-----------------|
|-----------------|-10-10---------0-|-2---2---------2-|-------2---------|
|-----0-0---------|-----------------|-----------------|---------------2-|
  E E E E Q   Q     E  E  H     E E   Q   H       E E   Q.    E Q.    E

|-----------------|-----------------|-----------------|-----------------|
|-----------------|-------------5---|-----------------|-------5---------|
|-----------------|-1-3---5---------|-3---3-----------|-5-3-5-------3-4-|
|-3---3---------5-|-----------------|-----------------|-----------------|
  Q   H       E E   E E E Q.    Q     Q   H       Q     E E E Q.    E E 

|-----------------|-----------------|-----------------|-----------------|
|-----------------|-------3---5-----|-----------------|-------------5---|
|-5---5-----------|-------------5-3-|-5---5-----------|-------3-5-------|
|-----------------|-----------------|-------------0---|-3---5-----------|
  E E H.            Q.    Q   E E E   E E H       Q     Q   E E Q   Q

|-----------------|-----------------|-----------------|-----------------|
|-----------------|-----------------|-----------------|-----------------|
|-3---3-----------|-3---3-----------|-5---5---------5-|-5-5-5-5-----5-5-|
|---------------3-|---3-------------|-----------------|-----------------|
  Q   Q   Q   E E   E E H.            Q   H       E E   E E E Q.    E E

Interlude 3

|-----------------|-----------------|-----------------|-----------------|
|-2---2---------2-|(2)--------------|-2-2-------------|-2---------------|
|-----------------|-------2-----5---|-----------------|-------2-----5-5-|
|-----------------|-----------------|-----0-0---------|-----------------|
  Q   H       E E   Q.    Q.    Q     E E E Q H         Q.    Q.    E E 

|-----------------|-----------------|-----------------|-----------------|
|-2-2-------------|-2---------------|-2-2---2-------2-|(2)--------------|
|-----------------|-------2-----5-5-|-----------------|-------2-------5-|
|-----0-0---------|-----------------|-----0-----------|-----------------|
  E E E E H         Q.    Q.    E E   E E E E Q.    E   Q.    H

Verse 4

|------------<5>--|-----------------|-----------------|-----------------|
|-2-2--------<5>--|-----------------|-2---2-----4---5-|(5)--------0-2-0-|
|-----------------|-----------------|-----------------|-------0-2-------|
|-----0-0---------|-----------------|-----------------|-----------------|
  E E E E Q   Q     W                 Q   Q   E E E E   Q   E E E E E E

|------------<5>--|-----------------|-----------------|-4---4-------4---|
|-2-2--------<5>--|-----------------|-----------------|-----------------|
|-----------------|-----------------|-2---2-----------|-------2---------|
|-----0-0---------|-----------------|-----------------|---------------2-|
  E E E E Q   Q     W                 Q   H.            Q   E Q.    E E

|-----------------|-----------------|-----------------|-----------------|
|-----------------|-5---5-----------|-----------------|-----------------|
|---------------5-|---5---------5---|-3---3---------3-|-3-x-x-1---2-3-2-|
|-3---3-----------|---------------3-|-----------------|-----------------|
  Q   H       E E   E E H       E E   Q   H       E E   E E E Q   E E E

|-----------------|-----------------|-----------------|-----------------|
|-----------------|-----------------|-----------------|-------5---------|
|-5---5-----------|-----3---------5-|-5---5-----------|-5-5-5-----------|
|-----------------|---------0---3---|-----------------|-----------------|
  Q   H.            Q   Q   Q   E E   Q   H.            E E E E H

|-----------------|-----------------|-----------------|-----------------|
|-----------------|-----------------|-------3-5---5/7-|(7)--------------|
|-3---3-----------|-3---3-------x---|-5---------------|-------------5-x-|
|---------------3-|---3-------------|-----------------|-----3/5---------|
  Q   Q   Q   E E   E E H       E E   E E E E E E E E   E E E E Q   E E

Interlude 4

|-----------------|-----------------|-----------------|-----------------|
|-2-2-----2-------|(2)--------------|-2-2-------------|-2---------------|
|-----------------|-------2-----5---|-----------------|-------2-----5---|
|-----0-0---------|-----------------|-----0-0-0-------|-----------------|
  E E E E H         Q.    Q.    Q     E E E Q H         Q.    Q.    Q

Instrumental

|------------<5>--|-----------------|-----------------|-----------------|
|-2-2--------<5>--|-----------------|-2---------------|-----------------|
|-----------------|-----------------|-----------5-----|-----------------|
|-----0-0---------|-----------------|-----------------|-x-3-----x-x-5---|
  E E E E Q   Q     W                 H       E Q.      E Q.    E E Q

|------------<5>--|-----------------|-------4-4-------|-----------------|
|-2-2-2------<5>--|-----------------|-----------------|-----------------|
|-----------------|-----------------|-2-2-2---------2-|-2-2---2-2-0-----|
|-------0---0-----|-----------------|-----------------|-------------2---|
  E E E Q   E Q     W                 E E E E Q.    E   E Q   E E E Q

|-----------------|-----------------|-----------------|-------0---------|
|-----------------|-5---------------|-----------------|-1-------0-------|
|-----------------|-----------------|-3---3---------3-|-------------3-1-|
|-3---3---------3-|-----3-----------|-----------------|-----------------|
  Q   H       E E   E E H.            Q   H       E E   Q.    E Q   E E

|-----------------|-----------------|-----------------|-----------------|
|-----------------|-----5/7---------|---------------5/|-7---3/5---5-----|
|-5---5-----------|-------------3---|-5---5-----------|-------------0---|
|-----------------|---------------5-|-----------------|-----------------|
  Q   H.            Q   E Q.    E E   Q   H       E E   Q   E Q   E Q

|-----------------|-----------------|-----------------|-----------------|
|-----------------|-----------------|-----------------|-----------------|
|-3---3-----------|-3---3---------4-|-5---5---------3-|-5-----5-----x-5-|
|---------------3-|---3-------------|-----------------|---------5-------|
  Q   H       E E   E E Q.    Q E E   Q   H       E E   Q.    E Q   E E

Outro

|-----------------|-----------------|-----------------|-----------------|
|-2---2---------2-|-2---------------|-2-----2-2-----2-|-2---------------|
|-----------------|-------2-----5---|-----------------|-------2-----5---|
|-----------------|-----------------|-----------------|-----------------|
  Q   H       E E   Q.    Q.    Q     Q.    E Q.    E    Q.    Q.    Q

|-----------------|-----------------|-----------------|-----------------|
|-2-2-----2-------|(2)--------------|-2-----2-2-----2-|-2---------------|
|-----------------|-------2-----5---|-----------------|-------2-----5---|
|-----0-0---------|-----------------|-----------------|-----------------|
  E E E E H         Q.    Q.    Q     Q.    E Q.    E    Q.    Q.    Q

                                                             Repeat to fade
||------------<5>---|-----------------|------------<5>--|------------------||
||o-2-2-------<5>---|-----------------|-2-2--------<5>--|-----------------o||
||o-----------------|-------2-----5-5-|-----------------|-----2-2-----5-5-o||
||------0-0-0-------|-----------------|-----0-0-0-------|------------------||
    E E E E Q  Q      Q.    Q.    E E   E E E E Q   Q     Q   E Q.    E E


Key to rhythm notations:

W - Whole Note/Semi-Brieve
H - Half Note/Minim
Q - Quarter Note/Crotchet       Q. - Dotted Quarter Note
E - Eight Note/Quaver           E. - Dotted Eight Note
S - Sixteenth Note/Semi-Quaver  S. - Dotted Sixteenth Note
Добавлено: 08.07.2015
Другие материалы по этой песне:
  • Аккорды и текст

Страница создана 15.03.2012
http://primanota.ru/joni-mitchell/black-crow-chords.htm
Привет, Гость.
Предлагаем пройти революционный курс по гитаре.
Подарок от PrimaNota.Ru, забирай!