PrimaNota.ru - самый крупный в мире бесплатный архив песенных текстов, аккордов, табулатур и нот


Jonezetta - Welcome Home - текст песни, бас-таба, видео

Регистрация Запомнить меня
Войти через:  Facebook Google Twitter Vk Yandex Mail.ru

Jonezetta - Welcome Home - текст песни, бас-таба, видео

Печатать
Просмотров: 113
-----------------------------------------------------------------
WELCOME HOME – Jonezetta
-----------------------------------------------------------------
Tabbed By: Justin
e-mail: jpyke@telus.net
Tuning: Standard

Intro

G|----------------------------------|
D|----------------------------------|
A|-8888888866666666-----------------|
E|-----------------8888888899999999-|

Verse

G|-----------------|
D|-----------------|
A|-888-6-6---------|
E|---------888-9-9-|

G|--------------------------------|
D|-33-653----653-3----------------|
A|-------6-6------33-36364-4-4-46-|x2
E|--------------------------------|

G|-----|
D|-----|
A|-8\0-|
E|-----|

Chorus

G|------------------|
D|---------111------|
A|------------44444-|x3
E|-1-1-14-4---------|

G|------------------|
D|------------------|
A|-3333333344446666-|
E|------------------|

Post-Chorus

G|----------------------------------|
D|----------------------------------|
A|-8888888866666666-----------------|x2
E|-----------------8888888899999999-|

Verse

G|-------------------|
D|-6-----------------|
A|--68--6-6---6------|x2
E|-----------9-8-9-9-|

G|--------------------------------|
D|-33-653----653-3----------------|
A|-------6-6------33-36364-4-4-46-|x2
E|--------------------------------|

G|---------------3-|
D|-3-3-653-3-3-36--|
A|-----------------|
E|-----------------|

Chorus

G|------------------|
D|---------111------|
A|------------44444-|x3
E|-1-1-14-4---------|

G|------------------|
D|------------------|
A|-3333333344446666-|
E|------------------|

Bridge

G|-------------|
D|-------------|
A|-------------|
E|-13\1---13\1-|

Guitar Solo

G|-----------------------------3333-|
D|----------------------------------|
A|-3363363644441111336336364444-----|
E|----------------------------------|

Bass Solo

G|------------------|
D|---------111------|
A|------------44444-|x5
E|-1-1-14-4---------|

G|-------------|
D|-------------|
A|-3-34--------|
E|------1/13\1-|

Chorus

G|------------------|
D|---------111------|
A|------------44444-|x3
E|-1-1-14-4---------|

G|---------------------------|
D|---------------------------|
A|-33333333444466663-3-36434-|
E|---------------------------|

Outro

G|-----------------------|
D|-----------------------|
A|-----------------1-1-1-|x3
E|-1-1-1111-14-4-44------|

G|---------------------|
D|-----------------1-3-|
A|---------------------|
E|-1-1-1111-14-4-44----|


| /  slide up
| \  slide down
| h  hammer-on
| p  pull-off
| ~  vibrato
| +  harmonic
| x  muted note

Добавлено: 20.03.2012
Вам также может быть интересно:
Другие материалы по этой песне:
  • Аккорды и текст

Страница создана 20.03.2012
http://primanota.ru/jonezetta/welcome-home-chords.htm
Привет, Гость.
Предлагаем пройти революционный курс по гитаре.
Подарок от PrimaNota.Ru, забирай!