PrimaNota.ru - самый крупный в мире бесплатный архив песенных текстов, аккордов, табулатур и нот


Jonathan Tyler And The Northern Lights - Gypsy Woman - таба, видео

Регистрация Запомнить меня
Войти через:  Facebook Google Twitter Vk Yandex Mail.ru

Jonathan Tyler And The Northern Lights - Gypsy Woman - таба, видео

Печатать
Просмотров: 115
-------------------------------------------------------------------------------
          Gypsy Woman - Jonathan Tyler and the Northern Lights
-------------------------------------------------------------------------------
Tabbed by: Charley Wiles
Email: charley_wiles@yahoo.com

Tuning: Standard

This is an awesome song by an amazing band.  Very simple guitar part, and super fun to play.  
I know this tab is correct, because I have spoken with the band about the chords 
and whatnot.  Enjoy! - www.myspace.com/jonathantylermusic



It's been two weeks since I've heard from you,


And now you come round knockin' my door.


I don't know who you think I am,


And what you've heard before.


But I ain't down for no crazy games
                                    

And your down-right gypsy ways, no.
 
  Em
So take your lies and all your things


And take 'em right from where you came, now.



Guitar Break:
Em G D G D G D G Em x2


Verses:

Every night since you've been gone

                                     G   G
I've been sitting right here alone, now.

  Em
Waiting at home for the phone to ring

                                              D   D
So you could tell me that you're coming home, girl.

  Em
But I ain't down for no crazy games
                                    
                                G   G    
And your down-right gypsy ways, no.
 
  Em
So take your lies and all your things


And take 'em right from where you came, now.



Chorus:

     Em        G        D
Cause I can't love you now,

              A
You make it much too hard

         Em        G        D
And you must have figured out

               A              
That things are gonna change

     Em        G        D
Cause I can't love you now,

              A
You make it much too hard

         Em        G        D
And you must have figured out

               A                 Em
That things are gonna change, tonight.



Solo 1:

e|---------------------------------------------------------------|
B|---------------------------------------------------------------|
G|---14b16--12---14b16--14--12---14b16--12-----------------------|  x2
D|-------------------------------------------------12-----12h14--|
A|------------------------------------------12h14-----14---------|
E|---------------------------------------------------------------|


Verse 2 - Same as verse 1

Chorus

Bridge:  
The whole bridge is all Em, but there is one little riff that stands out.  I play 
it like this.  Play around with it.

e|----------------------------------|
B|-----0-------3----0---------0-----|
G|-------0------------0---------0---|   x4
D|---2-----2/4----------2---2-------|
A|----------------------------------|
E|-0-------------0--------0---------|


Solo 2:

e|---------------------------------------------|
B|---------------------------------------------|
G|---14--14b16--14--12----------12-------------|   
D|----------------------14--12-----14---12h14--|
A|---------------------------------------------|  ---
E|---------------------------------------------|      \
                                                        x2
e|---------------------------------------------|      /
B|-------------------------------------15b17~--|  ---
G|---14--14b16--14--12----------12-------------|
D|----------------------14--12-----14----------|
A|---------------------------------------------|
E|---------------------------------------------|


Chorus



| /  slide up
| \  slide down
| h  hammer-on
| p  pull-off
| ~  vibrato
| +  harmonic
| x  Mute note
=============================================================================
Добавлено: 17.06.2012
Другие материалы по этой песне:

Страница создана 17.06.2012
http://primanota.ru/jonathan-tyler-and-the-northern-lights/gypsy-woman-chords.htm
Привет, Гость.
Предлагаем пройти революционный курс по гитаре.
Подарок от PrimaNota.Ru, забирай!