PrimaNota.ru - самый крупный в мире бесплатный архив песенных текстов, аккордов, табулатур и нот


Jonathan Rado - Law And Order - таба, видео

Регистрация Запомнить меня
Войти через:  Facebook Google Twitter Vk Yandex Mail.ru

Jonathan Rado - Law And Order - таба, видео

Печатать
Просмотров: 89
Jonathan Rado - Law And Order


INTRO

   G             Bm         

e|--------------------------|
B|--------------------------|
G|-7------------------------|
D|--------------------------| x2
A|--------------------------|
E|--------------------------|


   G          Bm         G6        Bm        Am              Dm

e|----------------------------------------------------------------|
B|----------------------------------------------------------------|
G|-12------14\11------12\9------12\7-------7\2--------4-5---7-----|
D|----------------------------------------------------------------|
A|----------------------------------------------------------------|
E|----------------------------------------------------------------|

                                   Bm

e|----------------------------------------------------------------|
B|----------------------------------------------------------------|
G|--/14-12---10---9---7---5--------4------------------------------|
D|----------------------------------------------------------------|
A|----------------------------------------------------------------|
E|----------------------------------------------------------------|


REPEAT INTRO [0:39]

   G             Bm         

e|--------------------------|
B|--------------------------|
G|-7------------------------|
D|--------------------------| x2
A|--------------------------|
E|--------------------------|

     G          Bm         G6        Bm        Am              Dm

e|----------------------------------------------------------------|
B|----------------------------------------------------------------|
G|-7/12------14\11------12\9------12\7-------7\2--------4-5---7---|
D|----------------------------------------------------------------|
A|----------------------------------------------------------------|
E|----------------------------------------------------------------|

                                   Bm

e|----------------------------------------------------------------|
B|----------------------------------------------------------------|
G|--/14-12---10---9---7---5--------4------------------------------|
D|----------------------------------------------------------------|
A|----------------------------------------------------------------|
E|----------------------------------------------------------------|

   Bm                              

e|------------------------------|
B|------------------------------|
G|-4----------------------------|
D|------------------------------|
A|------------------------------|
E|------------------------------|


BRIDGE [1:17]

   Bm              Dm             Am           C7

e|----------------------------------------------------------------|
B|--------------------------8-9---10--------12\5---------6---5----|
G|-4------4-5-6----7------7---------------------------------------|
D|----------------------------------------------------------------|
A|----------------------------------------------------------------|
E|----------------------------------------------------------------|


BACK TO FIRST PART [1:28]

   G             Bm         

e|--------------------------|
B|--------------------------|
G|-7------------------------|
D|--------------------------| x2
A|--------------------------|
E|--------------------------|

   G          Bm         G6        Bm        Am              Dm

e|----------------------------------------------------------------|
B|----------------------------------------------------------------|
G|-12------14\11------12\9------12\7-------9\5--------4-5---7-----|
D|----------------------------------------------------------------|
A|----------------------------------------------------------------|
E|----------------------------------------------------------------|

                                   Bm

e|----------------------------------------------------------------|
B|----------------------------------------------------------------|
G|--/14-12---10---9---7---5--------4------------------------------|
D|----------------------------------------------------------------|
A|----------------------------------------------------------------|
E|----------------------------------------------------------------|

   Bm                              

e|------------------------------|
B|------------------------------|
G|-4----------------------------|
D|------------------------------|
A|------------------------------|
E|------------------------------|


REPEAT BRIDGE [2:05]

   Bm              Dm             Am           C7

e|----------------------------------------------------------------|
B|--------------------------8-9---10--------12\5---------6---5----|
G|-4------4-5-6----7------7---------------------------------------|
D|----------------------------------------------------------------|
A|----------------------------------------------------------------|
E|----------------------------------------------------------------|


OUTRO [2:15]

   G             Bm         

e|--------------------------|
B|--------------------------|
G|-7------------------------|
D|--------------------------| x2
A|--------------------------|
E|--------------------------|

   G          Bm         G6        Bm        

e|-----------------------------------------|
B|-----------------------------------------|
G|-12------14\11------12\9------12\7-------|
D|-----------------------------------------|
A|-----------------------------------------|
E|-----------------------------------------|
Добавлено: 11.11.2015
Другие материалы по этой песне:
  • Аккорды и текст

Страница создана 11.11.2015
http://primanota.ru/jonathan-rado/law-and-order-chords.htm
Привет, Гость.
Предлагаем пройти революционный курс по гитаре.
Подарок от PrimaNota.Ru, забирай!