PrimaNota.ru - самый крупный в мире бесплатный архив песенных текстов, аккордов, табулатур и нот


Jonathan Coulton - You Ruined Everything - аккорды и текст, видео

Регистрация Запомнить меня
Войти через:  Facebook Google Twitter Vk Yandex Mail.ru

Jonathan Coulton - You Ruined Everything - аккорды и текст, видео

Печатать
Просмотров: 119
You Ruined Everything
Jonathan Coulton
Verse Fingerpicking                          Final measure after chorus           
  C     G       B7   Em       C     G   D         C     Dadd4 G
|-------------|-------------|------------|      |--------------|
|-------------|-------------|-----------3|      |-------------0|
|---0---0-----|---2--0-----0|---0---0---2|      |---0----0----0|
|-----2----0--|---1----0----|-----2---0-0|      |-----2----4---|
|-3----------0|-2--------2--|-3----------|      |-3------5-----|
|-------3-----|----2-0------|-------3----|      |-------------3|


Chords                  Chorus:
C     x320xx             Bm   Em     Am Bm    Cm   G C/G G D7
G     3200xx            |-----------|-------------|3---------|
B7    x212xx            |-----------|-------------|----------| 
Em    022000            |-----------|0----2---3---|----------| 
D     xx023x            |--4-0--0---|---2---4-5---|-------2--|
Bm    x24432            |3-----0--0-|--1---3--4---|---0-1-1--|
Am    x02210            |-----------|-------------|----------|
Cm    x35543
C/G   3x2010             Bridge:
D7    xx0212            |-----------------|------------------|----------------|-------------------|
Dadd4 x540xx            |3----------------|------------------|3---------------|-------------------|
Cadd9 x3203x            |-----------------|------------------|----------------|-------------------|
G/B   x2003x            |---0-0-0-0--3--2-|--5-----2-----2---|-0-0-0-0-0--3--2|--5----------------|
Bb    x1333x            |--3---3----3--1--|-4---4----1-----1-|3---3------3--1-|-4---4---1--3-1-3-1|
Am7   x0201x            |-----------------|----3-------1-----|----------------|----3--------------|
Ab    466544
Eb    x6888x
F     133211
D7(2) x5453x

Verse
      C   G B7 Em
I was fine
  C        G      D
I pulled myself together
        C   G B7 Em
Just in time
   C       G     D
To throw myself away

Chorus
Bm      Em                Am   Bm Cm
Once my perfect world was gone I knew
           G        C/G G D7         
You ruined everything
              C  G B7 Em C Dadd4 G
In the nicest way

Verse
           C   G B7 Em
You should know
    C            G      D
How great things were before you
     C  G B7 Em
Even so
        C      G     D
They're better still today

Chorus
Bm      Em             Am  Bm Cm          
I can't think of who I was before
           G        C/G G D7         
You ruined everything
              C  G B7 Em C Dadd4 G
In the nicest way

Bridge
Cadd9        G/B
Bumps in the road remind us
Bb           Am7
Worst of the best behind us
Ab         Eb
Only good things will find us
F
Me and you
Cadd9        G/B
Days will be clear and sunny
Bb          Am7
We're gonna need more money
Ab        Eb
Baby, you know it's funny
D7                       C   G B7 Em
All those stories coming true

Verse
   C       G      D
Despite my better efforts
             C  G B7 Em
It's all for you
    C          G     D
The worst kind of cliche

Chorus
Bm      Em                Am  Bm  Cm
I'll be with you till the day you leave
           G        C/G G D7         
You ruined everything
              C  G B7 Em C Dadd4 G
In the nicest way
Добавлено: 04.04.2012
Другие материалы по этой песне:

Страница создана 26.02.2012
http://primanota.ru/jonathan-coulton/you-ruined-everything-chords.htm
Привет, Гость.
Предлагаем пройти революционный курс по гитаре.
Подарок от PrimaNota.Ru, забирай!