PrimaNota.ru - самый крупный в мире бесплатный архив песенных текстов, аккордов, табулатур и нот


Jonathan Coulton - Comde Monkey - таба, видео

Регистрация Запомнить меня
Войти через:  Facebook Google Twitter Vk Yandex Mail.ru

Jonathan Coulton - Comde Monkey - таба, видео

Печатать
Просмотров: 108
hello everyone this is my first tab so....

Artist: Jonathan Coulton
Song: Code Monkey

if there is any problem with the tabs plz msg me
jordan21rd@hotmail.com

                                   -INTRO-

    palm muted                          palm muted
e|-------------------               e|---------------|
B|-------------------               B|---------------|
G|-------------------        or     G|---------------|
D|-------------------               D|-9-9-9-9-9-----|
A|-14-14-14-14-------               A|-7-7-7-7-7-----|
E|-12-12-12-12------- ect.          E|---------------| ect.


e|---------------------------------------------------------------------------|
B|---------------------------------------------------------------------------|
G|---------------------------------------------------------------------------|
D|----9--------------------9---------------------------------9---------------|
A|----7----9-9---7-7-------7----9-9---7-7----11-11-7-9-------7----9-9---7-7--|
E|---------7-7---5-5------------7-7---5-5----9--9--9-9------------7-7---5-5--|

                                  -PRECHORUS-

e|---------------------------------------------------------------------------|
B|---------------------------------------------------------------------------|
G|---------------------------------------------------------------------------|
D|----------------------------11--11--11-11-11-------------------------------|
A|-7--7--7-7-7---9--9--9-9-9--9---9---9--9--9---12--12--12-12-12-------------|
E|-5--5--5-5-5---7--7--7-7-7--------------------10--10--10-10-10-------------|


thanks i'll try to figure out the rest later
Добавлено: 22.05.2012
Другие материалы по этой песне:
  • Аккорды и текст

Страница создана 22.05.2012
http://primanota.ru/jonathan-coulton/comde-monkey-chords.htm
Привет, Гость.
Предлагаем пройти революционный курс по гитаре.
Подарок от PrimaNota.Ru, забирай!