PrimaNota.ru - самый крупный в мире бесплатный архив песенных текстов, аккордов, табулатур и нот


Jonas David - Weak Bones - таба, видео

Регистрация Запомнить меня
Войти через:  Facebook Google Twitter Vk Yandex Mail.ru

Jonas David - Weak Bones - таба, видео

Печатать
Просмотров: 88
-------------------------------------------------------------------------------
                             WEAK BONES - Jonas David
-------------------------------------------------------------------------------
Tabbed by: LiaLinnéa

It works for me, I'm happy about any comments. (:

Tuning: EG#DGBd 

Intro+Vers (strumming)
d |--0-----0-----0-----0-----------------------------------------------------------|
B |--0-----0-----0-----0-----------------------------------------------------------|
G |--7-----6-----4-----6-----------------------------------------------------------|
D |--0-----0-----0-----0-----------------------------------------------------------|
G#|--6-----5-----3-----5-----------------------------------------------------------|
E |--7-----5-----3-----5-----------------------------------------------------------|

I know where we've been through 
some paths without light 
I still draw from the fires 
that we once had 

I know where we've been to 
some places with light 
still wanting the fires 
still walk in the light 


Bridge  (strumming)
d |-(0)---(0)---(0)---(0)---------------------------------------------------------|
B |-(0)---(0)---(0)---(0)---------------------------------------------------------|
G |--2-----4-----7-----6----------------------------------------------------------|
D |--0-----0-----0-----0----------------------------------------------------------|
G#|--1-----3-----6-----5----------------------------------------------------------|
E |--2-----3-----7-----5----------------------------------------------------------|

And I know 
I know 
I know you 
This weak bones 
weak bones 
are strong with you


Repeat Vers & Bridge

Outro   (strumming)
d |--0-----0-----0-----0-----------------------------------------------------------|
B |--0-----0-----0-----0-----------------------------------------------------------|
G |--7-----9-----4-----6-----------------------------------------------------------|
D |--0-----0-----0-----0-----------------------------------------------------------|
G#|--6-----8-----3-----5-----------------------------------------------------------|
E |--7-----9-----3-----5-----------------------------------------------------------|


No-no-no-no (...)
Strong with you



(lyrics from Jonas David @bandcamp)
Добавлено: 27.12.2015
Другие материалы по этой песне:
  • Аккорды и текст

Страница создана 27.12.2015
http://primanota.ru/jonas-david/weak-bones-chords.htm
Привет, Гость.
Предлагаем пройти революционный курс по гитаре.
Подарок от PrimaNota.Ru, забирай!