PrimaNota.ru - самый крупный в мире бесплатный архив песенных текстов, аккордов, табулатур и нот


Jonas Brothers - Summertime Anthem - таба, видео

Регистрация Запомнить меня
Войти через:  Facebook Google Twitter Vk Yandex Mail.ru

Jonas Brothers - Summertime Anthem - таба, видео

Печатать
Просмотров: 184
Уроки эстрадного вокала в Санкт-Петербурге
                     Summertime Anthem – Jonas Brothers

It's a "new" song off some Winter/Christmas Disney album.
Leave a comment, if you have any corrections :D

Intro:
e|-----------------------------------------|
B|-----------------------------------------|
G|---------------------8888-6666-44444444--|
D|--4444-6666-99999999-8888-6666-44444444--|
A|--4444-6666-99999999-6666-4444-22222222--|
E|--2222-4444-77777777---------------------|

Verse:
e|------------------------------------------------|    |-----|
B|------------------------------------------------|    |-----|
G|------------------------88-8\6-66-6\4-44444444--|    |-4~--|
D|-44-4/6-66-6/9-99999999-88-8\6-66-6\4-44444444--| x2 |-4~--|
A|-44-4/6-66-6/9-99999999-66-6\4-44-4\2-22222222--|    |-2~--|
E|-22-2/4-44-4/7-77777777-------------------------|    |-----|

Chorus:
e|---------------------|    |------------------------------|
B|---------------------|    |------------------------------|
G|------6666-44444444--|    |-88-8\6-66-6------------------|
D|-4444-6666-44444444--| x2 |-88-8\6-66-6-66666666/8/9999--|
A|-4444-4444-22222222--|    |-66-6\4-44—4-66666666/8/9999--|
E|-2222----------------|    |-------------44444444/6/7777--|

Post-chorus:
e|-----------------------------------------|
B|-----------------------------------------|
G|---------------------8888-6666-44444444--|
D|--4444-6666-99999999-8888-6666-44444444--|
A|--4444-6666-99999999-6666-4444-22222222--|
E|--2222-4444-77777777---------------------|

Verse:
e|------------------------------------------------|    |-----|
B|------------------------------------------------|    |-----|
G|------------------------88-8\6-66-6\4-44444444--|    |-4~--|
D|-44-4/6-66-6/9-99999999-88-8\6-66-6\4-44444444--| x2 |-4~--|
A|-44-4/6-66-6/9-99999999-66-6\4-44-4\2-22222222--|    |-2~--|
E|-22-2/4-44-4/7-77777777-------------------------|    |-----|

Chorus:
e|---------------------|    |----------------------------------|
B|---------------------|    |----------------------------------|
G|------6666-44444444--|    |-88-8\6-66-6----------------------|
D|-4444-6666-44444444--| x2 |-88-8\6-66-6-66666666/8/99999999--|
A|-4444-4444-22222222--|    |-66-6\4-44—4-66666666/8/99999999--|
E|-2222----------------|    |-------------44444444/6/77777777--|

Bridge:
e|-----------------------|    |-----------------------------|
B|-----------------------|    |-----------------------------|
G|-------66-6-44-444444--|    |----------------------6~-4~--|
D|-44-4--66-6-44-444444--| x5 |-66666666-99999999-4~-6~-4~--|
A|-44-4--44-4-22-222222--|    |-66666666-99999999-4~-4~-2~--|
E|-22-2------------------|    |-44444444-77777777-2~--------|

Chorus:
e|---------------------------------------------------|
B|---------------------------------------------------|
G|------6666-44444444-8888-6666----------------------|
D|-4444-6666-44444444-8888-6666-66666666/8/99999999--|
A|-4444-4444-22222222-6666-4444-66666666/8/99999999--|
E|-2222-------------------------44444444/6/77777777--|

e|---------------------|    |------------------------------------|
B|---------------------|    |------------------------------------|
G|------6666-44444444--|    |-88-8\6-66-6------------------------|
D|-4444-6666-44444444--| x2 |-88-8\6-66-6-66666666/8/9~--4~--4\--|
A|-4444-4444-22222222--|    |-66-6\4-44—4-66666666/8/9~--4~--4\--|
E|-2222----------------|    |-------------44444444/6/7~--2~--2\--|
Добавлено: 08.04.2012
Другие материалы по этой песне:
  • Аккорды и текст

Страница создана 08.04.2012
http://primanota.ru/jonas-brothers/summertime-anthem-chords.htm
Привет, Гость.
Предлагаем пройти революционный курс по гитаре.
Подарок от PrimaNota.Ru, забирай!