PrimaNota.ru - самый крупный в мире бесплатный архив песенных текстов, аккордов, табулатур и нот


Jonas Brothers - Poison Ivy - аккорды и текст, таба, видео

Регистрация Запомнить меня
Войти через:  Facebook Google Twitter Vk Yandex Mail.ru

Jonas Brothers - Poison Ivy - аккорды и текст, таба, видео

Печатать
Просмотров: 245
Poison Ivy
Jonas Brothers
Tabbed By - XxGUITARZER0xX


Some one asked me to tab this to chords so I did.

I Think it is 100% correct if there is any corrections that need to be made notify
me i will change them and give credit where credit is do!

Chords and in power chord form!
(If you want to change to open chords that is fine... sound the same!)


Chord Chart

E Power Chord
e-----    ------    -----    -----|
B-----    ------    -----    --5--|
G-----    ------    --9--    --4--|
D--2-- OR --14-- OR --9-- OR --2--|
A--2--    --14--    --7--    -----|
E--0--    --12--    -----    -----|

F Power Chord
e-----    ------    -----|
B-----    ------    --6--|
G-----    --10--    --5--|
D--3-- OR --10-- OR --3--|
A--3--    --8---    -----|
E--1--    ------    -----|

G Power Chord
e-----    ------    -----|
B-----    ------    --8--|
G-----    --12--    --7--|
D--5-- OR --12-- OR --5--|
A--5--    --10--    -----|
E--3--    ------    -----|

G sharp Power Chord
e-----    ------    -----|
B-----    ------    --9--|
G-----    --13--    --8--|
D--6-- OR --13-- OR --6--|
A--6--    --11--    -----|
E--4--    ------    -----|

A Power Chord
e-----    -----    ------    ------|
B-----    -----    ------    --10--|
G-----    --2---   --14--    --9---|
D--7-- OR --2-- OR --14-- OR --7---|
A--7--    --0--    --12--    ------|
E--5--    -----    ------    ------|

B flat Power Chord
e-----    -----    ------|
B-----    -----    --11--|
G-----    --3--    --10--|
D--8-- OR --3-- OR --8---|
A--8--    --1--    ------|
E--6--    -----    ------|

B Power Chord
e-----    -----    ------|
B-----    -----    --12--|
G-----    --4--    --11--|
D--9-- OR --4-- OR --9---|
A--9--    --2--    ------|
E--7--    -----    ------|

C Power Chord
e------    -----    ------|
B------    -----    --14--|
G------    --5--    --13--|
D--10-- OR --5-- OR --10--|
A--10--    --3--    ------|
E--8---    -----    ------|

D Power Chord
e------    -----    -----    ------|
B------    -----    --3--    --15--|
G------    --7--    --2--    --14--|
D--12-- OR --7-- OR --0-- OR --12--|
A--12--    --5--    -----    ------|
E--10--    -----    -----    ------|

E flat Power Chord
e------    -----    -----|
B------    -----    --4--|
G------    --8--    --3--|
D--13-- OR --8-- OR --1--|
A--13--    --6--    -----|
E--11--    -----    -----|


Intro is G to C to D Repeated then    CC    DD then the verse starts!

(First Verse)
G           Eb             E
I just got back from the doctor
      F                    C
He told me that I had a problem
         Eb          G
But I realized it's you
G           Eb             E
I try to scratch away the issue
       F             C
All I ever get is tissues
         Eb            G
So I can wipe away my tears

G
Yeah

(First Chorus)
G                      C       D
Everyone's allergic to poison ivy
G                      C       D
Everyone's allergic to poison ivy
G
Everybody gets the itch
C           D
Everybody hates that
G                      C       Eb  D  G
Everyone's allergic to poison ivy


(Second Verse)
G            Eb                 E
And now I found out you were lying
         F                  C
When you told me you were trying
          Eb          G
Just to medicate the rash
G            Eb           E
Tangled vines they are deceiving
          F                    C
From the lines that now are leading
         Eb             G
To the truth I need to hear


(Second Chorus)
G                      C       D
Everyone's allergic to poison ivy
G                      C       D
Everyone's allergic to poison ivy
G
Everybody gets the itch
C           D
Everybody hates that
G                      C       Eb  D  G
Everyone's allergic to poison ivy


G
Yow

G
Yeah

(Bridge)
G
I breakout and I start to shake

When I hear your name
              F
I can't walk away

G to F

G
I can't stop, even if I try

I lay down my pride
              F
I can't walk away

G to F

G
I get burned and I have to learn

That the court's adjourned
      F        C
I can't walk away
G
Yeah

G to F to C

G
Tried lines and tangled vines and

Where the trying times
      F       C
I can't walk away

G to F to C

(Key changing area)
Bb      C
Poison
Eb      F
Poison
      G
Poison ivy


G                      C      D
Everyone's allergic to poison ivy

(Third Chorus)
Eb                       Ab      Bb
Everybody needs a little poison ivy
Eb                       Ab      Bb
Everybody wants a little poison ivy
Eb
Everybody gets the itch
Ab          Bb
Everybody hates that
Eb                       Ab      Bb
Everybody needs a little poison ivy


Eb
Everybody gets the itch
Ab          Bb
Everybody hates that
Eb                       Ab      Bb
Everybody needs a little poison ivy

(Outro)
Ab      Bb
Poison ivy
Ab      B  Bb  Ab  Bb
Poison ivy
        Eb
Poison ivy


                    Eb
Gimme some poison, baby!


There you go 100% correct and tabbed by ear!

Copyright to - Me (XxGUITARZER0xX)
Добавлено: 21.06.2012
Другие материалы по этой песне:

Страница создана 12.03.2012
http://primanota.ru/jonas-brothers/poison-ivy-chords.htm
Привет, Гость.
Предлагаем пройти революционный курс по гитаре.
Подарок от PrimaNota.Ru, забирай!