PrimaNota.ru - самый крупный в мире бесплатный архив песенных текстов, аккордов, табулатур и нот


Jonas Brothers - Got Me Going Crazy - текст песни, таба, видео

Регистрация Запомнить меня
Войти через:  Facebook Google Twitter Vk Yandex Mail.ru

Jonas Brothers - Got Me Going Crazy - текст песни, таба, видео

Печатать
Просмотров: 197
Tuning: Okay, at the top, there is the Standard E tuning version. And I also tabbed it 
Drop D ‘cause I was lazy and didn't feel like re-tuning it. But
can be played in standard too. You'll just need to change the chords a little… Here we go

This is the standard E tuning version. The sole is at the bottom below the D tuning version

Intro/Verse ( Repeat as much as you need to for the intro and verse )
e|------------------------------------------------------------------------------|
B|------------------------------------------------------------------------------|
G|------------------------------------------------------------------------------|
D|------------------------------------------------------------------------------|
A|------------------------------------------------------------------------------|
E|--2---2-7---2-2-2--8-7----2--2-7---9-9-9-9-9-9--------------------------------|
Chorus Pt. 1
e|---------------------------------------------|
B|---------------------------------------------|
G|----7777--------99999999---------------------|2x
D|----7777--7777--99999999---------------------|
A|----5555--7777--77777777---------------------|
E|----------5555-------------------------------|
Chorus Pt. 2
e|---------------------------------------------|
B|---------------------------------------------|
G|----6/7-7-7-----------8/9-9-9--8/9-9-9-------|
D|----6/7-7-7--6/7-7-7--8/9-9-9--8/9-9-9-------|1x
A|----4/5-5-5--6/7-7-7--6/7-7-7--6/7-7-7-------|
E|-------------4/5-5-5-------------------------|

e|----------------------------------------------------|
B|----------------------------------------------------|
G|---------------7-7-7-7---9-9-9-9--------------------|
D|---55555555----7-7-7-7---9-9-9-9--------------------|
A|---55555555----5-5-5-5---7-7-7-7--------------------|
E|---33333333-----------------------------------------|

This is the version in D tuning.

Intro/Verse ( Repeat as much as you need to for the intro and verse )
e|------------------------------------------------------------------------------|
B|------------------------------------------------------------------------------|
G|------------------------------------------------------------------------------|
D|------------------------------------------------------------------------------|
A|------------------------------------------------------------------------------|
D|--4---4-9---4-4-4--10-9----4--4-9---11-11-11-11-11-11-------------------------|
Chorus Pt. 1
e|---------------------------------------------|
B|---------------------------------------------|
G|----7777--------99999999---------------------|2x
D|----7777--7777--99999999---------------------|
A|----5555--7777--77777777---------------------|
D|----------7777-------------------------------|
Chorus Pt. 2
e|---------------------------------------------|
B|---------------------------------------------|
G|----6/7-7-7-----------8/9-9-9--8/9-9-9-------|
D|----6/7-7-7--6/7-7-7--8/9-9-9--8/9-9-9-------|1x
A|----4/5-5-5--6/7-7-7--6/7-7-7--6/7-7-7-------|
D|-------------6/7-7-7-------------------------|

e|----------------------------------------------------|
B|----------------------------------------------------|
G|---------------7-7-7-7---9-9-9-9--------------------|
D|---55555555----7-7-7-7---9-9-9-9--------------------|
A|---55555555----5-5-5-5---7-7-7-7--------------------|
D|---55555555-----------------------------------------|
 Play Intro/ Verse again, Chorus again, and then we go into the solo…
 Solo
e|------------------------------------------------------|
B|------------------------------------------------------|
G|---7~~--9--11--14~~---16---18--17b(18)---16~~---------|
D|------------------------------------------------------|
A|------------------------------------------------------|
D|------------------------------------------------------|
                                       (Full bend)    (Half bend)
e|---------------------------------------------------------------------------|
B|-----------------------------------------20b--20b--------------------------|
G|---9-9-9-11-11-11-13-13-13-14-14-14---------------18---18b-----------------|
D|---------------------------------------------------------------------------|
A|---------------------------------------------------------------------------|
D|---------------------------------------------------------------------------|
 (Full bends )
e|-------------------------------------------------|
B|-------------------------------------------------|
G|--7b-7b--9b-9b--11b-11b--14b-14b-----------------|
D|-------------------------------------------------|
A|-------------------------------------------------|
D|-------------------------------------------------|

And that's it. You go on to play the chorus and intro again.
In the last chorus, they break for the chords but you can figure out the timing for that.

Enjoy playing the song.

God Bless
Добавлено: 27.07.2012
Другие материалы по этой песне:
  • Аккорды и текст

Страница создана 13.04.2012
http://primanota.ru/jonas-brothers/got-me-going-crazy-chords.htm
Привет, Гость.
Предлагаем пройти революционный курс по гитаре.
Подарок от PrimaNota.Ru, забирай!