PrimaNota.ru - самый крупный в мире бесплатный архив песенных текстов, аккордов, табулатур и нот


Jonah33 - God Of My Life - текст песни, таба, видео

Регистрация Запомнить меня
Войти через:  Facebook Google Twitter Vk Yandex Mail.ru

Jonah33 - God Of My Life - текст песни, таба, видео

Печатать
Просмотров: 175
Jonah33
God of My Life
Jonah33

I got this tab from
http://www.christianguitar.org/csong16270/Jonah-33-God-of-My-Life
but made a few changes to it.

Intro: (Play 2x)
e---------------------|
B---------------------|
G---0-----------------|
D----4---2-0---0------|
A------------------2b-|
E-3----3-----3---3----|

Verse 1:
e------------------------------------------|
B------------------------------------------|
G---0--------------------0-----------------|
D----4---2-0---0----------4---2-0---0------|
A------------------2b-------------------2--|b
E-3----3-----3---3-----0----0-----0---0----|

E-----------------------------------|
B-----------------------------------|
G---------------------------4----7--|
D-----5----5/7--------7/9--5-5--7-7-|
A-0-0----0------0-0-0-----3----5----|
E-----------------------------------|

Prechorus:
e---------------------------         e----------------------|
B---------------------------         B----------------------|
G-55-55-55-55-77-77--------- 3x Then:G-55-55-55-55-77-77-77-|
D-55-55-55-55-77-77-22-22---         D-55-55-55-55-77-77-77-|
A-33-33-33-33-55-55-22-22---         A-33-33-33-33-55-55-55-|
E-------------------00-00---         E----------------------|

Chorus:
e---------------------------------|
B---------------------------------|
G-----5---7-7--5555-4444-44--5--7-|
D-5---5---7-7--5555-5555-55--5--7-|
A-5---3---5-5--3333-3333-33--3--5-|
E-3-------------------------------|

Verse 2: Same as Verse 1

Prechorus 2:
e---------------------------         e----------------------|
B---------------------------         B----------------------|
G-55-55-55-55-77-77--------- 1x Then:G-55-55-55-55-77-77-77-|
D-55-55-55-55-77-77-22-22---         D-55-55-55-55-77-77-77-|
A-33-33-33-33-55-55-22-22---         A-33-33-33-33-55-55-55-|
E-------------------00-00---         E----------------------|

Chorus

Bridge:
e----------------------------------------|
B----------------------------------------|
G--------------0-------------------------|
D-2------5--------2b--7-7----------------|
A-2------5----3-3-----7-7--0h2-22-0h2-22-|
E-0--0-2-3---1--------5-5----------------|

e---------------------------|
B---------------------------|
G--------------0------------|
D-2------5--------2b--7-7-7-|
A-2------5----3-3-----7-7-7-|
E-0--0-2-3---1--------5-5-5-|

Bridge 2:
e----------------------------------|
B---3-3-----3-3-----3-3------------|
G--0-0-0-0-0-0-0-0-0-0-0-0---0---0-| 4x
D-------2-------2-------2----------|
A-3---------------3----------------|
E---------3----------------0---2---|

Chorus: 2x

Prechorus 2:

Chorus: 2x

End:
E-----------|
B-----------|
G-----5---7-|
D-5---5---7-|
A-5---3---5-|
E-3---------|

Questions?
Email at cory.roesch@yahoo.com
Добавлено: 21.03.2012
Другие материалы по этой песне:
  • Аккорды и текст

Страница создана 01.03.2012
http://primanota.ru/jonah33/god-of-my-life-chords.htm
Привет, Гость.
Предлагаем пройти революционный курс по гитаре.
Подарок от PrimaNota.Ru, забирай!