PrimaNota.ru - самый крупный в мире бесплатный архив песенных текстов, аккордов, табулатур и нот


Jon Spencer Blues Explosion - Sweet N Sour - таба, видео

Регистрация Запомнить меня
Войти через:  Facebook Google Twitter Vk Yandex Mail.ru

Jon Spencer Blues Explosion - Sweet N Sour - таба, видео

Печатать
Просмотров: 158
Уроки эстрадного вокала в Санкт-Петербурге
Авторы музыки: Judah Bauer, Jon Spencer, Russell Simins
Авторы текста: Jon Spencer
THE JON SPENCER BLUES EXPLOSION

SWEET 'N' SOUR

tabbed by dan

standard tuning

(this is from memory, so probably not exact)

|----------------------------------x-x-x-x-x-x-x-x--|
|--11----11----11----11----11------x-x-x-x-x-x-x-x--|
|--10----10----10----10----10------x-x-x-x-x-x-x-x--|
|---8-----8-----8-----8-----8------x-x-x-x-x-x-x-x--|
|---8-----8-----8-----8-----8-----------------------|
|---------------------------------------------------|
intro                              (sort of harmonics at 7th fret)

|-----------------------------------------|---9b11--------------|
|-----------------------------------------|---------------------|
|-10--10--------10------10------10--------|---------------------|
|--8---8---------8-------8-------8--------|---------------------|
|--8---8---x-x---8---x---8---x---8---x-x--|---------------------|
|----------x-x-------x-------x-------x-x--|---------------------|
intro cont  guitar 1                       lead into verse grad bend pick a lot

|--------------------------------------------------------|
|---11--11--x-x--11-x-11-x-11-11-x-x---------------------|
|---10--10--x-x--10-x-10-x-10-10-x-x----8b10r8---6b8-----|
|----------------------------------------------8-----8---|
|--------------------------------------------------------|
|--------------------------------------------------------|
intro guitar 2

|------------------------------------------|
|------------------------------------------|
|------------------------------------------|
|--3--3---x-x--3--x--3--x--3-----3--x-x----|
|--3--3---x-x--3--x--3--x--3-----3--x-x----|
|--1--1---x-x--1--x--1--x--1-----1--x-x----|
verse guitar 1 

|-------------------------------------------|-------------------------------|
|-------------------------------------------|-------------------------------|
|-------------------------------------------|-------------------------------|
|--8---8-----8------8-8---8---8-8---8-8--8--|--8---8-8---8-8--8-/12-10-8h10-|
|--8--10p8--11p8---10-8---8--10-8---8-8h10--|--8--10p8--11p8--8-------------|
|-------------------------------------------|-------------------------------|
verse guitar 2                         end verse

|
|-----------------------------------------|
|-----------------------------------------|
|---10-10--8--10-10--8---8----8--8--8--8--|
|----8--8--8---8--8--8---6--x-6--6--6--6--|
|----8--8--6---8--8--6---6--x-6--6--6--6--|
chorus guitar 1

|----------------------|--------------------|-------------------|
|----------------------|--------------------|-------------------|
|----10---------10-----|--------------------|-------------------|
|----10--8------10--8--|--------------------|-------------------|
|--8-----8----8-----8--|-/6-4-3-1--3p1---1--|--/6-4-3-1-----1---|
|--8-----6----8-----6--|---------------3----|------------3------|
chorus guitar 2               end 1                       end 2

|------------------------------|
|------------------------------|
|---8----------8-----------8---|
|---8----3/5---8----3/5----8---|
|---6----3/5---6----3/5----6---|
|--------1/3--------1/3--------|
middle guitar 1

|
|--------------------3--3-3----------------|
|---8---------8------5--5-4--8-------------|
|---8---3/5---8---5----------8---8/11vvvvv-|
|---6---3/5---6---5----------6-------------|
|-------1/3-------3------------------------|
middle guitar 2

|------------------------------------------------------------|
|------------------------------------------------------------|
|-----8b-8b-8b-8b-8b-8b-8b-----6h7-------------6b7-----------|
|---------------------------8------8-8--8p6-8------8-6-8--8--|
|--x\--------------------------------------------------------|
|--x\--------------------------------------------------------|
solo     not 100%, but close

|-----------------------------------------------------------------------|
|------------------------------------------------------------9----------|
|--6b7---6b7-6b7----6b7-6b7----6b7-6b7----6b7-6b7----6--8b10---8p6---6--|
|------8---------8----------8----------8----------8----------------8----|
|-----------------------------------------------------------------------|
|-----------------------------------------------------------------------|
solo     again, a bit of a guess but close

|-------------------------------------------------------------|
|-------------------------------------------------------------|
|-------------------------------------------------------------|
|--3-3-------3-----3---3--------3-3-------3-----3-----3-------|
|--3-3--x-x--3--x--3-x-3--x-x---3-3--x-x--1--x--1--x--1--x-x--|
|--1-1--x-x--1--x--1-x-1--x-x---1-1--x-x--1--x--1--x--1--x-x--|
break  guitar 1

|-----------------------|
|--11-11---11---11--11--|
|--10-10---10---10--10--|
|--------x----x---------|
|--------x----x---------|
|-----------------------|
break guitar 2    just mess around with this and solo scale

end is same as verse.
that's it. enjoy
Добавлено: 19.03.2012
Другие материалы по этой песне:

Страница создана 19.03.2012
http://primanota.ru/jon-spencer-blues-explosion/sweet-n-sour-chords.htm
Привет, Гость.
Предлагаем пройти революционный курс по гитаре.
Подарок от PrimaNota.Ru, забирай!