PrimaNota.ru - самый крупный в мире бесплатный архив песенных текстов, аккордов, табулатур и нот


Jon Spencer Blues Explosion - She Said - таба, видео

Регистрация Запомнить меня
Войти через:  Facebook Google Twitter Vk Yandex Mail.ru

Jon Spencer Blues Explosion - She Said - таба, видео

Печатать
Просмотров: 121
Авторы музыки: Judah Bauer, Jon Spencer, Russell Simins
Авторы текста: Jon Spencer
arcarsenal of ttabs (courtesy of 911tabs) made this tab, and so I will only take credit 
adding it to the site, since it is a KILLER song. Jon Spencer Blues Explosion/Blues 
ROCK


the JON SPENCER BLUES EXPLOSION!
"She Said"
Standard Tuning

ROCK'N'ROLL! The solo's the only thing you need to know
about. The notes are all there, but they aren't in sequence.
It'll be easy for you guys to figure out.

verse:                                       and the other guitar does that
Guitar 2:                                    thing at the end:
E|---------------------------------------|  E|-------|
B|---------------------------------------|  B|-------|
G|---------------------------------------|  G|-------|
D|---------------------------------------|  D|-------|
A|---------------------------------------|  A|-10x10-|
E|-3x3-0-2-3--8-6-5--0-2-3-3x3-0-2-3-3x3-|  E|-------|

And every once in a while they throw in a little fill
that goes like this...

E|-------------|
B|-6^-6--------|
G|-6^-6--0-4-0-|
D|-------------|
A|-------------|
E|-------------|

chorus
guitar 2:
E|------------------------------|
B|------------------------------|
G|------------------------------|
D|-5-5-5-55-5-55--5-5-5-55-5-55-|
A|-5-5-5-55-5-55--3-3-3-33-3-33-|
E|-3-3-3-33-3-33--3-3-3-33-3-33-|

guitar 1:
E|------------------------------------------|
B|---------------------------12121212----12-|
G|-----12-1212----12--12--------------------|
D|-----------------------8h10--------1010---|
A|-8h10-------1010--10----------------------|
E|------------------------------------------|

E|---------------------------------------|
B|------151515----15--15----13131313--13-|
G|---------------------------------------|
D|-12h14------1414--14---6h8--------88---|
A|---------------------------------------|
E|---------------------------------------|

E|------15------------10--10---------|
B|-12h14--14p12-10-12---12--12-10-12-|
G|-----------------------------------|
D|-----------------------------------|
A|-----------------------------------|
E|-----------------------------------|

E|------19191919----19--19------17171717----17----17-|
B|---------------------------------------------------|
G|-17h18--------1818--18---15h16--------1616--1616---|
D|---------------------------------------------------|
A|---------------------------------------------------|
E|---------------------------------------------------|

solo
guitar 1:
E|--------|
B|--------|
G|-----0~-|
D|--------|
A|--------|
E|-3/10---|

E|--------------------------------------|
B|--------------------------------------|
G|--------------------------------------|
D|-9^99--9999--9--9-------------------9-|
A|-----10----10-10-10-9-----------9-10--|
E|---------------------10-9-8-9-10------|

E|--------------------10--10--10----10---|
B|---12--1212--12--12---12--12--1212--12-|
G|-12--12----12--12----------------------|
D|---------------------------------------|
A|---------------------------------------|
E|---------------------------------------|

guitar 2:
E|-----------|
B|-----------|
G|-----------|
D|-----------|
A|-----------|
E|-3x3-0-2-3-|

second solo part
guitar 1:
E|-----------------------------------------|
B|----------------------------8-8-8-8------|
G|-----------------------------------------|
D|-5--4-5-4--10-8-7--4--5-5-8--5-5-5-5-3-5-|
A|-----------------------------------------|
E|-----------------------------------------|

E|-------------------------------------------------|
B|-------------------------------------------------|
G|--------------------------------5^5--------------|
D|-5--4-5-4--10-8-7--4--5-5-8--5-8---5-8-5-555-3-5-|
A|-------------------------------------------------|
E|-------------------------------------------------|

guitar 2:
E|--------------------------------------|
B|--------------------------------------|
G|--------------------------------------|
D|--------------------------------------|
A|--------------------------------------|
E|-3x3-0-2-3--8-6-5-0-2-3-3x3-0-2-3-3x3-|

interlude
guitar 1:
E|-----|
B|-----|
G|-----|
D|-5-5-|
A|-5-5-|
E|-3-3-|

guitar 2:
E|-------------------|
B|------8-8-x-xx-x-x-|
G|------7-7-x-xx-x-x-|
D|-5-5--5-5-x-xx-x-x-|
A|-5-5------x-xx-x-x-|
E|-3-3---------------|

(ending for guitar 2:)
E|----|
B|-8/-|
G|-7/-|
D|-5/-|
A|----|
E|----|

outro ("werewolf... she said! werewolf... she said!...")
E|--------------------------------------------------|
B|--------------------------------------------------|
G|------14-141414--12-12h14------12-121212-10-10h12-|
D|--------------------------------------------------|
A|-10h12---------10----------8h10---------8---------|
E|--------------------------------------------------|

structure:
verse
chorus
verse
chorus
solo
interlude
verse
chorus
outro

Lyrics are below:

baby, have mercy
please don't be unkind
I remember gypsy woman lay me down
(uh)
and blew my mind
fall out of my back she gonna look why back
into the back of my eyes
she said you've done your baby wrong
and you gonna die tonight
now the villagers are comin'
with (uh) pitchforks and screamin dogs
I got long black hair growin'
way outta the back of my skull
feelin' kinda itchy like (uh)
I need blood in my mouth
she said you gotta get away (come on baby)
come on way down south
she said
she said you got nothin left
you ain't a man no more
you're out of control
and these wolf bights means gonna find out
what its like to lose your soul
now my teeth are long
pants torn, a gram on my palm
what have I done
I said get up now please baby
I got to fly
I got to run
she said (she said)

(aww kid) I CRAVE the taste of blood
good lord almighty
good lord above
my soul is lost
I said I curse the day that I ever was born
baby have mercy
don't you hear me scream in pain
I'll say my prayers at night come on please
I won't forsake your name
they gonna lay me out to rot right here
in this marshy swamp
tore up by the silver bullet
right through my heart
she said (she said)

she said
werewolf
she said
werewolf
Добавлено: 10.05.2012
Другие материалы по этой песне:

Страница создана 21.04.2012
http://primanota.ru/jon-spencer-blues-explosion/she-said-chords.htm
Привет, Гость.
Предлагаем пройти революционный курс по гитаре.
Подарок от PrimaNota.Ru, забирай!