PrimaNota.ru - самый крупный в мире бесплатный архив песенных текстов, аккордов, табулатур и нот


Jon Lajoie - Everyday Normal Crew - таба, бас-таба, видео

Регистрация Запомнить меня
Войти через:  Facebook Google Twitter Vk Yandex Mail.ru

Jon Lajoie - Everyday Normal Crew - таба, бас-таба, видео

Печатать
Просмотров: 171
Awesome rap song by comedian Jon Lajoie, 'Everyday Normal Crew'. The third in a trilogy 
of Everyday Normal Guy songs. Pretty simple stuff for this one.


This is the Intro
------------------------------------------------|
------------------------------------------------|
--------3---------------3------------5----------|
------5---5-----------5---5--------5---5--------|
----5-------5-------5-------5----5-------5------|
--3---------------3------------3-----------3----|

Then when the chorus words come in, this plays over the top
--6-----6--10-8-6-------------------------------|
-------------------8----------------------------|
------------------------7--7---7---7-8-8-7------|
------------------------------------------------|
------------------------------------------------|
------------------------------------------------|

Then the verse is basically the intro
-----------------------------------------------------------------|
-----------------------------------------------------------------|
--------3-------------3------------------------------------------|
------5---5---------5---5-----repeat until--7---7---7---7-8-8-7--|
----5-------5-----5-------5--------------------------------------|
--3-------------3------------------------------------------------|

It's all in Gm, so you can play around if you like.


Cool song

Enjoy it

This only took about 3 minutes so it might not be 100%, sounds good enough to me though

Peace

John Cammies
Добавлено: 22.07.2012
Другие материалы по этой песне:
  • Аккорды и текст

Страница создана 21.02.2012
http://primanota.ru/jon-lajoie/everyday-normal-crew-chords.htm
Привет, Гость.
Предлагаем пройти революционный курс по гитаре.
Подарок от PrimaNota.Ru, забирай!