PrimaNota.ru - самый крупный в мире бесплатный архив песенных текстов, аккордов, табулатур и нот


Jon Lajoie - Best Christmas Song - таба, видео

Регистрация Запомнить меня
Войти через:  Facebook Google Twitter Vk Yandex Mail.ru

Jon Lajoie - Best Christmas Song - таба, видео

Печатать
Просмотров: 94
-------------------------------------------------------------------------------
                       BEST CHRISTMAS SONG - Jon Lajoie
-------------------------------------------------------------------------------
Tabbed by: Hans Lindig
E-mail: hali271298@gmail.com

Tuning: Standard


INTRO/VERSE:
   Q  E E Q  Q  Q  E E E E Q
e|-----------------------------|
B|-----------------------------|
G|-----------------------------|
D|----2---5--2-----2-----------|
A|-3----3-------3----3-3---3---|
E|-----------------------3-----|

CHORUS:
play this twice:
   .   .     . . .   .   .     . .
   E S E S E E E E E E S E S E E E E E
e|-------------------------------------|
B|-----------------------------5-5-5---|
G|-----------2-2-2-2-4-4-4-4-4-5-5-5---|
D|-2-2-2-2-2-3-3-3-3-5-5-5-5-5---------|
A|-3-3-3-3-3---------------------------|
E|-------------------------------------|

then this:
   .   .           .   .
   E S E S E H     E S E S E H
E|---------------------------------|
B|-----------------5-5-5-5-5-5-----|
G|-2-2-2-2-2-2-----5-5-5-5-5-5-----|
D|-3-3-3-3-3-3---------------------|
A|---------------------------------|
E|---------------------------------|

then this once again:
   .   .     . . .   .   .     . .
   E S E S E E E E E E S E S E E E E E
e|-------------------------------------|
B|-----------------------------5-5-5---|
G|-----------2-2-2-2-4-4-4-4-4-5-5-5---|
D|-2-2-2-2-2-3-3-3-3-5-5-5-5-5---------|
A|-3-3-3-3-3---------------------------|
E|-------------------------------------|

LAST VERSE:
   .   .     . . .   .   .     . .
   E S E S E E E E E E S E S E E E E E
e|-------------------------------------|
B|-------------------------------------|
G|-------------------------------------|
D|-2-2-2-2-2-2-2-2-2-2-2-2-2-2-2-2-2---|
A|-3-3-3-3-3-3-3-3-3-3-3-3-3-3-3-3-3---|
E|-------------------------------------|

Song structure:
Intro riff 2x
Chorus 1x
Intro/Verse riff 12x
Chorus 1x
Intro/Verse riff 8x
Chorus 1x
Christmas arms
Christmas face
Christmas talking
No mittens
Last verse riff 4x
Chorus 1x

H = half note
Q = quarter
E = eighth
S = sixteenth
If there's no number under a letter, it means that there is a pause of the respective length.
A dot above the letter means it's a staccato note.
Добавлено: 18.10.2015
Другие материалы по этой песне:
  • Аккорды и текст

Страница создана 18.10.2015
http://primanota.ru/jon-lajoie/best-christmas-song-chords.htm
Привет, Гость.
Предлагаем пройти революционный курс по гитаре.
Подарок от PrimaNota.Ru, забирай!