PrimaNota.ru - самый крупный в мире бесплатный архив песенных текстов, аккордов, табулатур и нот


Jon Foreman - Your Cheating Heart - таба, видео

Регистрация Запомнить меня
Войти через:  Facebook Google Twitter Vk Yandex Mail.ru

Jon Foreman - Your Cheating Heart - таба, видео

Печатать
Просмотров: 117
Jon Foreman's great cover of Hank Williams' "Your Cheating Heart"

Capo 2
fingerpick

Verse (main riff):

C                       F                             G              Am
----------------------0---0---0---------------------------------------------------|
----1---1---1---------3---3---3-------3---3---3-------1---1---1-------------------|
----4---4---4-------5---5---5---5-----0---0---0-------4---4---4-------------------|
--2---2---2---2-2/3-----------------3---3---3---3---2---2---2---------------------|
3-------------------------------------------------0-------------2-(process with C)|
----------------------------------3-----------------------------------------------|

Chorus

F                       C               D7                   G
------3-0~---------------3-0~-----------2-0----------------------------------------|
--------------------------------------1-------------------3------------------------|
--2p0------------------0------------2-------------------0--------------------------|
3-------------------2p0-----------0-----------------0-3-----(go on with main riff)-|
------------------3----------------------------------------------------------------|
--------------------------------------------------3--------------------------------|

Listen to the song to get the right timing. You'll figure it out wink.gif


Lyrics:
               C
Your cheatin' heart
               F
Will make you weep
                G
You'll cry and cry
             Am
And try to sleep
                 C
But sleep won't come
                  F
The whole night through
               G
Your cheatin heart
              Am
will tell on you...

                 F
When tears come down
              C
Like falling rain
              D7
You'll toss around
             G
And call my name
                  C
You'll walk the floor
          F
The way I do
                G
Your cheatin' heart
              Am
will tell on you...

Your cheatin' heart
Will pine some day
And crave the love
You threw away
The time will come
When you'll be blue
Your cheatin' heart, will tell on you...

When tears come down
Like falling rain
You'll toss around
And call my name
You'll walk the floor
The way I do
Your cheatin' heart, will tell on you...


Chords used in Verse      Chords used in Chorus
 C   F   G   Am           F   C   D7  G
-----0--------------------3---3---2-----------------|
-1---3---3---1------------x---1---1---3-------------|
-4---5---0---4------------2---0---2---0-------------|
-2---3---3---2------------3---2---0---3-------------|
-3-------0---0----------------3-------0-------------|
---------3----------------------------3-------------|

For corrections or comments just write me a personal message.
Have fun playin that fine piece of art wink.gif

Sai2
Добавлено: 07.05.2012
Другие материалы по этой песне:
  • Аккорды и текст

Страница создана 07.05.2012
http://primanota.ru/jon-foreman/your-cheating-heart-chords.htm
Привет, Гость.
Предлагаем пройти революционный курс по гитаре.
Подарок от PrimaNota.Ru, забирай!