PrimaNota.ru - самый крупный в мире бесплатный архив песенных текстов, аккордов, табулатур и нот


Jon Foreman - Somebodys Baby - таба, видео

Регистрация Запомнить меня
Войти через:  Facebook Google Twitter Vk Yandex Mail.ru

Jon Foreman - Somebodys Baby - таба, видео

Печатать
Просмотров: 96
     Artist:Jon Foreman
     Album:Winter-EP
    I first tabbed the song under switchfoot but now it's were should be and it is 100% correct.

     Intro
   e|--------------------------------------------|
   B|---0-----0---0-----0---0-----0---0-----0----|
   G|--0-0---0-0-0-0---0-0-0-0---0-0-0-0---0-0---|
   D|-----0h2-------0h2-------0h2-------0h2------|
   A|-3---------3---------3---------3------------|
   E|--------------------------------------------|
     Verse 1(4x)
   e|-----------------------------------------------------------|
   B|---0-----0---0-----0---0-----0---0------0-----0---0-----0--|
   G|--0-0---0-0-0-0---0-0-0-0---0-0-0-0----0-0---0-0-0-0---0-0-|
   D|-----0h2-------0h2-------0h2-------0h2----0h2-------0h2----|
   A|-3---------3---------0---------0---------------------------|
   E|--------------------------------------1---------1----------|
     She yells,"If your homeless/Sure as hell you'd be drunk/Or high trying to get there
begging for junk/When the people don't want you /They just throw you money for beer/Her
was November/She went by Autumn or fall/It's been seven long years since the autumn 
her nightmares grew fingers and all of her dreams grew tears

     Chorus(2x)
e|------------------------------------|
B|---1-----1---1-----1---1-----1---1--|
G|--0-0---0-0-0-0---0-0-0-0---0-0-0-0-|
D|-----0h2-------0h2-------0h2--------|
A|---------------------0---------0----|
E|-1---------1------------------------|
     She's somebody's baby/Somebody's baby girl/She's somebody's baby/Somebody's baby
she's still somebody's baby

     Post-Chorus
   e|----------------------|
   B|---1-----1---1-----1--|
   G|--0-0---0-0-0-0---0-0-|
   D|-----0h2-------0h2----|
   A|-3---------3----------|
   E|----------------------|

     Verse 2(play verse part again with these words)
   She yells if you've never gone it alone/Well then you better throw the first
got one lonely stoner waiting to bring her to her knees/She dreams about heaven/Remembering
a nightmare she visits and knows all to well/And know and again/When she's sober she 
her teeth

     Chorus
     Verse 3(play verse again with these words)
     Today was her birthday strangely enough/When the cops found her body at the foot of
bluff/The anonymous call to slowly tip off the police/They got her I.D. from her dental
same fillings in tact the same nicotine stains/The birth to the death were both with no 
around to grieve

     Chorus
     Outro
   e|--333---33-333---33-333---33-333---33-333---33-3~|
   B|--111---11-111---11-111---11-111---11-111---11-1~|
   G|--000---00-000---00-000---00-000---00-000---00-0~|
   D|-----0h2------0h2------0h2------0h2------0h2---2~|
   A|-3--------3--------0--------0------------------3~|
   E|-------------------------------------1-----------|

      That's it.The Fall and Winter EP come out together on Jan.14,'08.
                                                             -Josh
Добавлено: 26.07.2012
Другие материалы по этой песне:
  • Аккорды и текст

Страница создана 01.05.2012
http://primanota.ru/jon-foreman/somebodys-baby-chords.htm
Привет, Гость.
Предлагаем пройти революционный курс по гитаре.
Подарок от PrimaNota.Ru, забирай!