PrimaNota.ru - самый крупный в мире бесплатный архив песенных текстов, аккордов, табулатур и нот


Jon Foreman - Lord Save Me From Myself - таба, видео

Регистрация Запомнить меня
Войти через:  Facebook Google Twitter Vk Yandex Mail.ru

Jon Foreman - Lord Save Me From Myself - таба, видео

Печатать
Просмотров: 88
This is what I got from listening to this song. Please point out any mistakes if you 
any. Enjoy!

Tuning: Standard (EADGBe)


Intrto                                         x3
e|-------------------------------|--------------------------------|
B|-------------------------------|--------------------------------|
G|-------0--------2h4--4p2p0-----|--0----0--------2h4--4p2p0------|
D|----------0-----------------2--|---------0------------------2---|
A|-------------------------------|--------------------------------|
E|----3-------3------------------|-----3------3-------------------|


Verse
e|------5------5------5------------3------3------3----------------|
B|--------6------6------6------------3------3------3--------------|
G|----------5------5------5------------0------0------0------------|
D|---5------------------------------------------------------------|
A|-----------------------------3----------------------------------|
E|----------------------------------------------------------------|


e|-------------------------------|--------------------------------|
B|-------------------------------|--------------------------------|
G|-------0--------2h4--4p2p0-----|--0----0--------2h4--4p2p0------|
D|----------0-----------------2--|---------0------------------2---|
A|-------------------------------|--------------------------------|
E|----3-------3------------------|-----3------3-------------------|


e|------5------5------5------------3------3------3----------------|
B|--------6------6------6------------3------3------3--------------|
G|----------5------5------5------------0------0------0------------|
D|---5------------------------------------------------------------|
A|-----------------------------3----------------------------------|
E|----------------------------------------------------------------|


e|-------------------------------|--------------------------------|
B|-------------------------------|--------------------------------|
G|-------0--------2h4--4p2p0-----|--0----0--------2h4--4p2p0------|
D|----------0-----------------2--|---------0------------------2---|
A|-------------------------------|--------------------------------|
E|----3-------3------------------|-----3------3-------------------|

Chorus
e|----------------------------------------------------------------|
B|-------5------5------5------------0------0------0---------------|
G|---------5------5------5------------0------0------0-------------|
D|-----------5------5------5------------0------0------0-----------|
A|----3-----------------------------------------------------------|
E|-------------------------------3--------------------------------|


e|----------------------------------------------------------------|
B|--------6------6------6------------5------5------5--------------|
G|----------7------7------7------------5------5------5------------|
D|------------7------7------7------------5------5------5----------|
A|----5-----------------------------------------------------------|
E|-------------------------------3--------------------------------|


e|----0-----0-----3-----------------------------------------------|
B|----1-----3-----5----5------5------5----------------------------|
G|----0-----0-----5------5------5------5--------------------------|
D|----2-----4-----5--------5------5------5------------------------| x2
A|----3-----5-----3-----------------------------------------------|
E|----x-----x-----x-----------------------------------------------|


Repeat Intro


Verse
e|------5------5------5------------3------3------3----------------|
B|--------6------6------6------------3------3------3--------------|
G|----------5------5------5------------0------0------0------------|
D|---5------------------------------------------------------------|
A|-----------------------------3----------------------------------|
E|----------------------------------------------------------------|


e|-------------------------------|--------------------------------|
B|-------------------------------|--------------------------------|
G|-------0--------2h4--4p2p0-----|--0----0--------2h4--4p2p0------|
D|----------0-----------------2--|---------0------------------2---|
A|-------------------------------|--------------------------------|
E|----3-------3------------------|-----3------3-------------------|


e|------5------5------5------------3------3------3----------------|
B|--------6------6------6------------3------3------3--------------|
G|----------5------5------5------------0------0------0------------|
D|---5------------------------------------------------------------|
A|-----------------------------3----------------------------------|
E|----------------------------------------------------------------|


e|-------------------------------|--------------------------------|
B|-------------------------------|--------------------------------|
G|-------0--------2h4--4p2p0-----|--0----0--------2h4--4p2p0------|
D|----------0-----------------2--|---------0------------------2---|
A|-------------------------------|--------------------------------|
E|----3-------3------------------|-----3------3-------------------|


Chorus
e|----------------------------------------------------------------|
B|-------5------5------5------------------------------------------|
G|---------5------5------5-----------4------2------0--------------|
D|-----------5------5------5-----------0------0------0------------|
A|----3-----------------------------------------------------------|
E|-------------------------------3--------3------3------3---------|


e|----------------------------------------------------------------|
B|--------6------6------6------------5------5------5--------------|
G|----------7------7------7------------5------5------5------------|
D|------------7------7------7------------5------5------5----------|
A|----5-----------------------------------------------------------|
E|-------------------------------3--------------------------------|


e|----0-----0-----3-----------------------------------------------|
B|----1-----3-----5----5------5------5----------------------------|
G|----0-----0-----5------5------5------5--------------------------|
D|----2-----4-----5--------5------5------5------------------------| x2
A|----3-----5-----3-----------------------------------------------|
E|----x-----x-----x-----------------------------------------------|


Bridge
e|-------------------------------|--------------------------------|
B|-------------------------------|--------------------------------|
G|-------0--------2h4--4p2p0-----|--0----0--------2h4--4p2p0------|
D|----------0-----------------2--|---------0------------------2---|
A|-------------------------------|--------------------------------|
E|----3-------3------------------|-----3------3-------------------|


e|------5------5------5------------3------3------3----------------|
B|--------6------6------6------------3------3------3--------------|
G|----------5------5------5------------0------0------0------------|
D|---5------------------------------------------------------------|
A|-----------------------------3----------------------------------|
E|----------------------------------------------------------------|


e|-------------------------------|--------------------------------|
B|-------------------------------|--------------------------------|
G|-------0--------2h4--4p2p0-----|--0----0--------2h4--4p2p0------|
D|----------0-----------------2--|---------0------------------2---|
A|-------------------------------|--------------------------------|
E|----3-------3------------------|-----3------3-------------------|

e|------5------8------8-------------7------5----------------------|
B|--------6------6------6-------------6---------------------------|
G|----------5------5------5-------------5-------------------------|
D|---5--------------------------5---------------5h7p5--5----------|
A|----------------------------------------------------------------|
E|----------------------------------------------------------------|


e|-------------------------------|--------------------------------|
B|-------------------------------|--------------------------------|
G|-------0--------2h4--4p2p0-----|--0----0--------2h4--4p2p0------|
D|----------0-----------------2--|---------0------------------2---|
A|-------------------------------|--------------------------------|
E|----3-------3------------------|-----3------3-------------------|


Chorus
e|----------------------------------------------------------------|
B|-------5------5------5------------------------------------------|
G|---------5------5------5-----------4------2------0--------------|
D|-----------5------5------5-----------0------0------0------------|
A|----3-----------------------------------------------------------|
E|-------------------------------3--------3------3------3---------|


e|----------------------------------------------------------------|
B|--------6------6------6------------5------5------5--------------|
G|----------7------7------7------------5------5------5------------|
D|------------7------7------7------------5------5------5----------|
A|----5-----------------------------------------------------------|
E|-------------------------------3--------------------------------|


e|----0-----0-----3-----------------------------------------------|
B|----1-----3-----5----5------5------5----------------------------|
G|----0-----0-----5------5------5------5--------------------------|
D|----2-----4-----5--------5------5------5------------------------|
A|----3-----5-----3-----------------------------------------------|
E|----x-----x-----x-----------------------------------------------|


e|----0-----0-----8-----------------------------------------------|
B|----1-----3-----8----8-------8-------8--------------------------|
G|----0-----0-----9------9-------9-------9------------------------|
D|----2-----4-----10-------10------10------10---------------------|
A|----3-----5-----10----------------------------------------------|
E|----x-----x-----8-----------------------------------------------|


e|----0-----0-----10----------------------------------------------|
B|----1-----3-----12----12------12------12------------------------|
G|----0-----0-----12------12------12------12----------------------|
D|----2-----4-----12--------12------12------12--------------------|
A|----3-----5-----10----------------------------------------------|
E|----x-----x-----x-----------------------------------------------|


e|----3--------------------------------|
B|----5----5------5------5-------------|
G|----5------5------5------5-----------|
D|----5--------5------5------5---------|
A|----3--------------------------------|
E|----x--------------------------------|


Outro
e|-------------------------------|-----------------------------------------|
B|-------------------------------|-----------------------------------------|
G|-------0--------2h4--4p2p0-----|--0----0-------2h4--4p2p0---7--4--4------|
D|----------0-----------------2--|---------0--------------------------0----|
A|-------------------------------|-----------------------------------------|
E|----3-------3------------------|-----3------3-------------------------3--|


e|----------------------------------------------|
B|----------------------------------------------|
G|----2h4--4p2p0---5--4--4------2h4--4p2p0------|
D|-------------------------0-----------------2--|
A|----------------------------------------------|
E|---------------------------3------------------|


e|------------------------------------|
B|------------------------------------|
G|------0----0--------2h4--4p2p0------|
D|-------------0------------------2---| x16
A|------------------------------------|
E|---------3------3-------------------|


(end whith single G note)
Добавлено: 05.06.2012
Другие материалы по этой песне:
  • Аккорды и текст

Страница создана 05.06.2012
http://primanota.ru/jon-foreman/lord-save-me-from-myself-chords.htm
Привет, Гость.
Предлагаем пройти революционный курс по гитаре.
Подарок от PrimaNota.Ru, забирай!