PrimaNota.ru - самый крупный в мире бесплатный архив песенных текстов, аккордов, табулатур и нот


Jon Foreman - Instead Of A Show - таба, видео

Регистрация Запомнить меня
Войти через:  Facebook Google Twitter Vk Yandex Mail.ru

Jon Foreman - Instead Of A Show - таба, видео

Печатать
Просмотров: 92
Jon Foreman
Instead of Show
Summer EP -- 2008

Tuning - Standard (E A D G B e)
*Chords are listed at end of song

Intro 
e|----------------------------------------------------------------------|
B|---------------3--1-1-1-1--1-1-1-1---------------3--1-1-1-1--1-1-1-1--|
G|---------2--0--2--0-0-0-0--0-0-0-0---------2--0--2--0-0-0-0--0-0-0-0--|
D|------2--0--0--0--0h2-2-2--0h2-2-2------2--0--0--0--0h2-2-2--0h2-2-2--|
A|--3-2-2--x--x-----3-3-3-3--3-3-3-3--3-2-2--x--x-----3-3-3-3--3-3-3-3--|
E|------0--2--3---------------------------0--2--3-----------------------|

e|--------------------------------3------|
B|---------------2--1-1-1-1--3-3--3------|
G|---------2--0--3--0-0-0-0--2-2--0------|
D|------2--0--0--0--0h2-2-2--0-0--0------|
A|--3-2-2--x--x-----3-3-3-3-------x------|
E|------0--2--3-------------------3-3-2--|

Verse 1
 “I hate all your…” 
e|-------------------------------------------------------3--|
B|---------1-1-1-1---------1-1-1-1---------1-1-1-1--3-3--3--|
G|---------0-0-0-0---------0-0-0-0---------0-0-0-0--2-2--0--|
D|--2------2-2-2-2--2------2-2-2-2--2------2-2-2-2--0-0--0--|
A|--2------3-3-3-3--2------3-3-3-3--2------3-3-3-3-------x--|
E|--0-2-3-----------0-2-3-----------0-2-3----------------3--|

“Away with your…” 
e|-----------------------------------------------------------3--|
B|-------------1-1-1-1---------1-1-1-1---------1-1-1-1--3-3--3--|
G|-------------0-0-0-0---------0-0-0-0---------0-0-0-0--2-2--0--|
D|------2------2-2-2-2--2------2-2-2-2--2------2-2-2-2--0-0--0--|
A|------2------3-3-3-3--2------3-3-3-3--2------3-3-3-3-------x--|
E|--3-2-0-2-3-----------0-2-3-----------0-2-3----------------3--|

Chorus 
D5                Csus2         Gsus2
Instead let there be a flood of justice 
   D5         Csus2                Gsus2   
An endless procession of righteous living, living 
D5                Csus2         Em7     D/F#
Instead let there be a flood of justice 
             Cadd9  
Instead of a show 

Interlude
e|----------------------------------------------------------------------|
B|---------------3--1-1-1-1--1-1-1-1---------------3--1-1-1-1--1-1-1-1--|
G|---------2--0--2--0-0-0-0--0-0-0-0---------2--0--2--0-0-0-0--0-0-0-0--|
D|------2--0--0--0--0h2-2-2--0h2-2-2------2--0--0--0--0h2-2-2--0h2-2-2--|
A|--3-2-2--x--x-----3-3-3-3--3-3-3-3--3-2-2--x--x-----3-3-3-3--3-3-3-3--|
E|------0--2--3---------------------------0--2--3-----------------------|

Verse 2
Same as Verse 1

Chorus 

D5             Gsus2
I hate all you show

Bridge
Em        Am         Gsus2      
Ah, let's argue this out 
        D5
If your sins are lying red 
Em    Am         Gsus2  
Let's argue this out 
         D5 
You'd be white as the clouds 
Em    Am         Gsus2  
Let's argue this out 
     D5
Quit fooling around 

C                D7(no5)     
Give love to the ones who can't love at all 
C                D7(no5)      
Give hope to the ones who got no hope at all 
C                D7(no5)                            
Stand up for the ones who can't stand at… 

  “All…”                             “All…”        
e|-----------------------------------------------------------------------|
B|-----------3--1-1-1-1--1-1-1-1---------------3--1-1-1-1--1-1-1-1-------|
G|-----2--0--2--0-0-0-0--0-0-0-0---------2--0--2--0-0-0-0--0-0-0-0-------|
D|--2--0--0--0--0h2-2-2--0h2-2-2------2--0--0--0--0h2-2-2--0h2-2-2-------|
A|--2--x--x-----3-3-3-3--3-3-3-3--3-2-2--x--x-----3-3-3-3--3-3-3-3--3-2--|
E|--0--2--3---------------------------0--2--3----------------------------|

                Em    D5     
I hate all your show 
                Gsus2 Csus2 
I hate all your show
                Em    Gsus2
I hate all your show
                D5    Gsus2 
I hate all your show

Chorus

D5             Gsus2
I hate all you show

Outro
e|---------|
B|---------|
G|---------|
D|--2------|
A|--2------|
E|--0-2-3--|

*Chords Used
    C  Em  D5  Csus2  Gsus2  Em7  D/F#  Cadd9  D7(no5)     
e|----------------------------------------3---------|
B|--1------3-----3------3-----3----3------3------3--|
G|--0------2-----0------0-----0----2------0------5--|
D|--2--2---0-----x------0-----2----0------2------4--|
A|--3--2---------3------x-----2----x------3------5--|
E|-----0----------------3-----0----2----------------|
Добавлено: 26.06.2012
Другие материалы по этой песне:
  • Аккорды и текст

Страница создана 26.06.2012
http://primanota.ru/jon-foreman/instead-of-a-show-chords.htm
Привет, Гость.
Предлагаем пройти революционный курс по гитаре.
Подарок от PrimaNota.Ru, забирай!