PrimaNota.ru - самый крупный в мире бесплатный архив песенных текстов, аккордов, табулатур и нот


Jon Foreman - Behind Your Eyes - таба, видео

Регистрация Запомнить меня
Войти через:  Facebook Google Twitter Vk Yandex Mail.ru

Jon Foreman - Behind Your Eyes - таба, видео

Печатать
Просмотров: 116
Behind your eyes
by Jon Foreman
from the Winter EP
by Adam.Hulen@gmail.com

This is the main riff to this track, I'll figure out the rest and post it later.

E--------------------------------------------------------------------------|
B--------------------------------------------------------------------------|
G-------------------------------------------------0h2--------0h2-----------|
D-----0h2------0h2--------0h2---------0h2----3----------3--------------0h2-|
A--3-------3---------0-----------0-----------------------------------------|
E-------------------------------------------------------------------3------|

E------------------------------------------------------------------------|
B------------------------------------------------------------------------|
G------------------------------------------------------------------------|
D----2--2p0-------Repeat throughout--------------------------------------|
A------------2-3---------------------------------------------------------|
E------------------------------------------------------------------------|
Добавлено: 29.02.2012
Другие материалы по этой песне:

Страница создана 29.02.2012
http://primanota.ru/jon-foreman/behind-your-eyes-chords.htm
Привет, Гость.
Предлагаем пройти революционный курс по гитаре.
Подарок от PrimaNota.Ru, забирай!