PrimaNota.ru - самый крупный в мире бесплатный архив песенных текстов, аккордов, табулатур и нот


Jon Bellion - Luxury - аккорды и текст, видео

Регистрация Запомнить меня
Войти через:  Facebook Google Twitter Vk Yandex Mail.ru

Jon Bellion - Luxury - аккорды и текст, видео

Печатать
Просмотров: 118
Luxury
Jon Bellion
-Luxury-

I took many notes while making this tab from a YouTube cover I saw. That link is here - 
https://www.youtube.com/watch?v=AHN8gvemngQ
I recommend playing mostly the chords if you're playing alone but try to fit in the 
layers if you have some buddies to play with
Thanks a bunch to the guys at Dxrkk on YouTube and I hope you enjoy!

Standard Tuning

Bass line
                                                  (Every other bar finish with this)
e|----------------------------------------------  ----------------------------------|
B|----------------------------------------------  ----------------------------------|
G|----------------------------------------------  ----------------------------------|
D|----------------------------------------------  ----------------------------------|
A|---------4----4----4----(0)-------------------  ----------------------------------|
E|---0---------------------5------2-----0-------  -----------0-------2-------5------|

High Riff
                                                  (Every other bar finish with this)
e|----9-9-9-9-9-9-9-----5-----------------------  ---------------------------5------|
B|-----------------------------7------5---------  -----------5-------7--------------|
G|----------------------------------------------  ----------------------------------|
D|----------------------------------------------  ----------------------------------|
A|----------------------------------------------  ----------------------------------|
E|----------------------------------------------  ----------------------------------|


Chords
A, D
         A         D
e|-------5---------2----------|
B|-------5---------3----------|
G|-------6---------2----------|
D|-------7---------0----------|
A|-------7--------------------|
E|-------5--------------------|

Verse 1;
          A
Could you Lay with me

underneath the stars
              D
just conversate with me

my plane is boarding soon
           A
and its so plain to see

one could lose his way
             D
so could you pray with me

that I dont lose my soul in the luxury

Bridge: (play each chord once)(mute chord according to parentheses)
A                               (A)
Money the jealous type I always knew it
A
I knew shed come around if I'd only sweat the music
        D                                              (D)
But I'm starting to believe that thats a problem to my health
D
Cause' the size of half these checks could make me vomit on myself
A                                 (A)
But I give it up to heaven cause' it isnt Jon
A
The chorus and instrumental, oh you think its odd?
D                                       (D)
I dont have to give you lyrics cause' I know its god
D
Thats why I get emotional when the chorus drops

Chorus:
When playing solo use just the chords or the High Riff but if you can get a group of 3 
guitars playing each riff together this should sound pretty amazing.

Verse 2:
         A
Were not sad at all

We know you have to leave
             D
and were not mad at all

you'll be back in town
               A
and we'll play basketball

and if you fall off track
              D
we'll be your adderall

we wont let your soul drown in luxury

Bridge: (play each chord once)(mute chord according to parentheses)
A                               (A)
Money the jealous type I always knew it
A
I knew shed come around if I'd only sweat the music
        D                                              (D)
But I'm starting to believe that thats a problem to my health
D
Cause' the size of half these checks could make me vomit on myself
A                                 (A)
But I give it up to heaven cause' it isnt Jon
A
The chorus and instrumental, oh you think its odd?
D                                       (D)
I dont have to give you lyrics cause' I know its god
D
Thats why I get emotional when the chorus drops


Repeat Chorus


Outro:
If I were able to hit the notes that Audra Mae hits in the outro I'd do It acapella or 
by playing the chords once on beat, otherwise I'd wrap the song up after the second Chorus.
Добавлено: 20.09.2015
Другие материалы по этой песне:
  • Аккорды и текст

Страница создана 20.09.2015
http://primanota.ru/jon-bellion/luxury-chords.htm
Привет, Гость.
Предлагаем пройти революционный курс по гитаре.
Подарок от PrimaNota.Ru, забирай!