PrimaNota.ru - самый крупный в мире бесплатный архив песенных текстов, аккордов, табулатур и нот


Jokke Og Valentinerne - Et Godt Parti - таба, видео

Регистрация Запомнить меня
Войти через:  Facebook Google Twitter Vk Yandex Mail.ru

Jokke Og Valentinerne - Et Godt Parti - таба, видео

Печатать
Просмотров: 84
-------------------------------------------------------------------------------
               Et godt parti - Jokke og Valentinerne (intro) 
-------------------------------------------------------------------------------
Tabbed by: Skydia
E-mail: skydia@online.no

Tuning:Standard

e|---------------------------------------------------------------------------|
B|---------------------------------------------------------------------------|
G|---------5-X-5-7-7(X)5-X-X-----------5-------------------------------------|
D|-5-7-X-7-5-X-5-7-7(X)5-X-X-5-7-X-7-5-5-7-----------------------------------|
A|-5-7-X-7-3-X-3-5-5(X)3-X-X-5-7-X-7-5-3-7-----------------------------------|
E|-3-5-X-5-------------------3-5-X-5-3---5-----------------------------------|


--------------------------------------------------------------------------------
Добавлено: 23.10.2015
Другие материалы по этой песне:
  • Аккорды и текст

Страница создана 23.10.2015
http://primanota.ru/jokke-og-valentinerne/et-godt-parti-chords.htm
Привет, Гость.
Предлагаем пройти революционный курс по гитаре.
Подарок от PrimaNota.Ru, забирай!