PrimaNota.ru - самый крупный в мире бесплатный архив песенных текстов, аккордов, табулатур и нот


Jokke Og Valentinerene - Oel - аккорды и текст, видео

Регистрация Запомнить меня
Войти через:  Facebook Google Twitter Vk Yandex Mail.ru

Jokke Og Valentinerene - Oel - аккорды и текст, видео

Печатать
Просмотров: 93
Oel
Jokke Og Valentinerene
A
Fylla sitter temmelig tungt igjen
e|------------------------|----------------------|
b|------------------------|----------------------|
G|------------------------|----------------------|
D|-7--7--7--7--7--7--7--7-|-7---7--7--7--7--7--7-|
A|-7--7--7--7--7--7--7--7-|-7---7--7--7--7--7--7-|
E|-5--5--5--5--5--5--5--5-|-5---5--5--5--5--5--5-|

G
og de andre folka sover drit i dem
e|------------------------|----------------------|
b|------------------------|----------------------|
G|------------------------|----------------------|
D|-5--5--5--5--5--5--5--5-|-5---5--5--5--5--5--5-|
A|-5--5--5--5--5--5--5--5-|-5---5--5--5--5--5--5-|
E|-3--3--3--3--3--3--3--3-|-3---3--3--3--3--3--3-|

A
skallen hans er hekta på en ting
e|------------------------|----------------------|
b|------------------------|----------------------|
G|------------------------|----------------------|
D|-7--7--7--7--7--7--7--7-|-7---7--7--7--7--7--7-|
A|-7--7--7--7--7--7--7--7-|-7---7--7--7--7--7--7-|
E|-5--5--5--5--5--5--5--5-|-5---5--5--5--5--5--5-|

G                              F
den tingen har et fornavn ingenting
e|------------------------|----------------------|
b|------------------------|----------------------|
G|------------------------|----------------------|
D|-5--5--5--5--5--5--5--5-|-3---3---3--3--3--3---|
A|-5--5--5--5--5--5--5--5-|-3---3---3--3--3--3---|
E|-3--3--3--3--3--3--3--3-|-1---1---1--1--1--1---|

A
En soloppgang har aldri vært så stygg
G
Thore Skogmann ville sikkert kalt den 'snygg'
A
Han åpner kjøleskapet, ingenting...
G                              F
størkna blod i håret men ingen sting

A              G          F
Og om man bare bare hadde øl
e|------------------------|----------------------|
b|------------------------|----------------------|
G|------------------------|----------------------|
D|-7--7--7--7--5--5--5--5-|-3---3--3--3--3--3--3-|
A|-7--7--7--7--5--5--5--5-|-3---3--3--3--3--3--3-|
E|-5--5--5--5--3--3--3--3-|-1---1--1--1--1--1--1-|

A           G          F
om man bare bare hadde øl
e|------------------------|----------------------|
b|------------------------|----------------------|
G|------------------------|----------------------|
D|-7--7--7--7--5--5--5--5-|-3---3--3--3--3--3--3-|
A|-7--7--7--7--5--5--5--5-|-3---3--3--3--3--3--3-|
E|-5--5--5--5--3--3--3--3-|-1---1--1--1--1--1--1-|

A
Halsen hans er sår, den står i brann
G
Han skrur på springen, får i seg litt vann
A
En kasse export det var mer enn nok
G                          F
Nok til ingenting han gikk amok

A
Mens alle brilleballer pimpa vin
G
Spelte han sin rolle bra han var et svin
A
Fylla sitter temmelig tungt igjen
G                     F
det han trenger nå er medisin

A              G          F
Og om han bare bare hadde øl
A           G          F
om han bare bare hadde øl

(okay Jokke..)
A-A-G-G-A-A-G-F (samme som vers)
A-A-G-G

A
Han stikker nå, klokka er snart fem
G                               F
Han går og når den første banen hjem
      A          G              F
For i kjøleskapet hjemme er det øl
A             G             F
i kjøleskapet hjemme er det øl
A          G        F
å øl-øl-øl-øl-øl-øl-øl
A          G        F
å øl-øl-øl-øl-øl-øl-øl
A          G        F
å øl-øl-øl-øl-øl-øl-øl
A        G        F
øl-øl-øl-øl-øl-øl-øl
Добавлено: 29.06.2012
Другие материалы по этой песне:
  • Аккорды и текст

Страница создана 29.06.2012
http://primanota.ru/jokke-og-valentinerene/oel-chords.htm
Привет, Гость.
Предлагаем пройти революционный курс по гитаре.
Подарок от PrimaNota.Ru, забирай!