PrimaNota.ru - самый крупный в мире бесплатный архив песенных текстов, аккордов, табулатур и нот


Jokke Og Valentinerene - Alt Kan Repeteres - таба, видео

Регистрация Запомнить меня
Войти через:  Facebook Google Twitter Vk Yandex Mail.ru

Jokke Og Valentinerene - Alt Kan Repeteres - таба, видео

Печатать
Просмотров: 85
-------------------------------------------------------------------------------
			     Alt kan repeteres - Jokke og valentinerene
-------------------------------------------------------------------------------
Tabbed by:Espen Rian Skog	
Email:Espenskog@gmail.com

Tuning:EADGBE   

Intro:
e|----------------5---4---5--------------------------------------------------|
B|----------------5---4---5---8-8-8-7-5--------------------------------------|
G|----------------6---5---6---8-8-8-7-5--------------------------------------|
D|----------------7---6---7---8-8-8-7-5--------------------------------------|
A|---6-6-6-5-3----7---6---7---6-6-6-5-3--------------------------------------|
E|--------------5-5-4-4-5-5--------------------------------------------------|

Verse1:
e|----------5---4---5--------------------------------------------------------|
B|----------5---4---5---8-8-8-7-5--------------------------------------------|
G|----------6---5---6---8-8-8-7-5--------------------------------------------|
D|----------7---6---7---8-8-8-7-5--------------------------------------------|
A|----------7---6---7---6-6-6-5-3--------------------------------------------|
E|--------5-5-4-4-5-5--------------------------------------------------------|

chorus:

e|------------------------------5--------------------------------------------|
B|---8-8-8-7-5-7------8-8-8-7-5-5--------------------------------------------|
G|---8-8-8-7-5-7------8-8-8-7-5-6--------------------------------------------|
D|---8-8-8-7-5-7------8-8-8-7-5-7--------------------------------------------|
A|---6-6-6-5-3-5------6-6-6-5-3-7--------------------------------------------|
E|------------------------------5--------------------------------------------|
   x2

play this before second verse 
e|---------------------------------------------------------------------------|
B|---------------------------------------------------------------------------|
G|------2-4^5-2--------------------------------------------------------------|
D|--2h4---------4------------------------------------------------------------|
A|---------------------------------------------------------------------------|
E|---------------------------------------------------------------------------|

If you play alone, replace the last note with a F# chord

Verse2 is simply the chords F# G and E...  listen to the song to get the strumming right.

    F#  G    E
e|--2---3--------------------------------------------------------------------|
B|--2---3--------------------------------------------------------------------|
G|--3---4----1---------------------------------------------------------------|
D|--4---5----2---------------------------------------------------------------|
A|--4---5----2---------------------------------------------------------------|
E|--2---3--------------------------------------------------------------------|


the forth verse is played by only bass and drums... you can play the bassline like this..

e|---------------------------------------------------------------------------|
B|---------------------------------------------------------------------------|
G|---------------------------------------------------------------------------|
D|---------------------------------------------------------------------------|
A|-----------6-6-6-5-3-------------------------------------------------------|
E|---5-5-4-4-----------------------------------------------------------------|





A		G#	            A		  D#     D C			
Ta en titt ut av vinduet ditt æ'kke himmelen blå
A               G#                  A             D#     D C 
Det var mye værre her om da'n da var himmelen grå
A               G#                  A             D#     D C
Skulle vært her i forrige uke da hadde vi snø
A               G#                  A             
Alt jeg tenker på er vær og vind og mat hver bidige dag

D#          D C   A AG#G#A  D#         D   C   AG#G#A
Alt kan repeteres,          alle kan beledes
D#          D c  	            D#         D       C     E    
Alt kan repeteres,          og ingen ting blir bedre


F#				      G           E
Jeg våkner i den samme gamle senga og håper på det beste
F#                                    G              E  G
Tomme lommer og tommere glass, her er gutten som kan feste
F#				      G              E 	
Alle folka som var her i går har forsvinni til no' bedre
F#                                G         E G
Hver dag den samme som den neste, ut og reparere

Alt kan repeteres, ingen ting kan heles
Alt kan repeteres, og ingen ting blir bedre

Jeg sitter her og drekker igjen, min oppfinnsomhet har grenser
Skulle hatt no' piller eller no' spenn, eller begge deler
Alle folka går å prater om meg her skal det kommerseres
Dem begynner å bli skikkelig lei, her må det kritiseres

Ta en titt ut av vinduet ditt æ'kke himmelen blå (ikke vær så kjedelig) 
Det var mye værre her om da'n da var himmelen grå (uhelbredelig) 
Skulle vært her i forrige uke da hadde vi snø (kan det være mulig) 
Alt jeg tenker på er vær og vind og mat hver bidige dag

Alt kan repeteres,alle kan beledes
Alt kan repeteres, og ingen ting blir bedre

Jeg våkner i den samme gamle senga og håper på det beste
Tomme lommer og tommere glass, her er gutten som kan feste
Alle folka som var her i går har forsvinni til no' bedre
Hver dag den samme som den neste, ut og reparere

Alt kan repeteres
Alle kan beledes
Alt kan repeteres
Og ingen ting blir bedre

Alt kan repeteres
Alle kan beledes
Alt kan repeteres
Og ingen ting blir bedre

Alt kan repeteres
Alt kan repeteres
Alt kan repeteres
Alt kan repeteres

| /  slide up
| \  slide down
| h  hammer-on
| p  pull-off
| ~  vibrato
| +  harmonic
| x  Mute note
| ^  Bend 
===============================================================================
Добавлено: 18.04.2012
Другие материалы по этой песне:
  • Аккорды и текст

Страница создана 18.04.2012
http://primanota.ru/jokke-og-valentinerene/alt-kan-repeteres-chords.htm
Привет, Гость.
Предлагаем пройти революционный курс по гитаре.
Подарок от PrimaNota.Ru, забирай!