PrimaNota.ru - самый крупный в мире бесплатный архив песенных текстов, аккордов, табулатур и нот


Jokke & Valentinerne - Invitert - таба, видео

Регистрация Запомнить меня
Войти через:  Facebook Google Twitter Vk Yandex Mail.ru

Jokke & Valentinerne - Invitert - таба, видео

Печатать
Просмотров: 55
-------------------------------------------------------------------------------
                             Invitert - Jokke og valentinerene
-------------------------------------------------------------------------------
Tabbed by:Espen Rian Skog
Email:Espenskog@gmail.com

Tuning:EADGBE (Standard)

Notes:This is mainly transcribed for one guitar. It is originally played with two.
If you play with a second guitar, the 1.st just plays this during the solos:

A-C#m-Bm-E


Intro:

e|---------------------------------------------------------------------------|
B|-------9-10-10-10-9-10-9-9-------------------------------------------------|
G|--9-11---------------------11-11-11-9--------9-----------------------------|
D|--------------------------------------11p9-11--11-9-7-7h9-7-9--------------|
A|---------------------------------------------------------------------------|
E|---------------------------------------------------------------------------|

e|---------------------------------------------------------------------------|
B|---------------------------------------------------------------------------|
G|---------------------------------------------------------------------------|
D|--9b11^^^^-^^^^r-9b11p7-7---------7-9-9b11r-7*-----------------------------|
A|--------------------------9-7-7-9------------------------------------------|
E|---------------------------------------------------------------------------|

    A        C#m          Bm       E
Jeg våkna på gølvet ut av senga jeg falt
        A          C#m       Bm       E
Det var høyt under taket og hvitt over alt
   A           C#M         Bm       E
Og alt var så stort at jeg ikke fant dass
            A        C#M         Bm           E      F#
Jeg kan'kke fatte og begripe hva folk skal med så mye plass


e|---------------------------------------------------------------------------|
B|---------------------------10-8--------------------------------------------|
G|--11-11-9-------------9-10------9-7----------------------------------------|
D|-----------11-9-9-11-------------------------------------------------------|
A|---------------------------------------------------------------------------|
E|---------------------------------------------------------------------------|

e|------------------------------------------|---------------------------------|
B|---------------------------10-8-----------|-----9-10*-----------------------|
G|--11-11-9-------------9-10------9-7-7-9---|--11-----------------------------|
D|-----------11-9-9-11----------------------|---------------------------------|
A|------------------------------------------|---------------------------------|
E|------------------------------------------|---------------------------------|

2nd verse begins on "-10*-"


   A           C#m  Bm       E
En person i ei badekåpe kom ut
    A     C#M       Bm       E
Han så mistenkelig ut som en snut
     A           C#M    Bm       E
Han så på meg som om han så på no' rart
        A        C#m         Bm           E      F#
Han sa "er du det svinet som knuste det speilet i gangen"
        F# (E  C#)  B           F     C   G
Jeg sa "ja det var meg, og jeg lover å betale"
F#         (E C#)B           F     C      G
   Jeg var invitert og jeg gjorde det med vilje

e|---------------------------------------------------------------------------|
B|-------9-10-10-10-9-10-9-9-------------------------------------------------|
G|--9-11---------------------11-11-11-9--------9-----------------------------|
D|--------------------------------------11p9-11--11-9-7-7h9-7-9--------------|
A|---------------------------------------------------------------------------|
E|---------------------------------------------------------------------------|

e|---------------------------------------------------------------------------|
B|---------------------------------------------------------------------------|
G|---------------------------------------------------------------------------|
D|--9b11^^^^r-7-9b11^^^^r-9b11p7-7-----7-----7-------------------------------|
A|---------------------------------7h9---7h9---9-7-7-------------------------|
E|---------------------------------------------------9-7-5-------------------|

 A        C#m          Bm       E
Flere kom til med brødmat i kjeften
A          C#m       Bm       E
Merkelig opplagt og klart engasjert
A           C#m         Bm       E
Atletiske, selvsikre, medfødte rikfolk
        A        C#m         Bm  E      F#
Jeg begynte å lure på hvorfor jeg var invitert
  F# (E  C#)  B           F     C   G
Til et så sivilisert, selvskap uten knusing
F#         (E C#)B           F     C      G           E
   Jeg var invitert til et party der ingen ulykker skjer

A-C#m-Bm-E x4 then on the 4th. Bm :

(with distortion)

e|---------------------------------------------------------------------------|
B|----10-----------------------------------------8---------------------------|
G|--9----9-7-6h7p6---6---6---7b9r-6----/9---9-9---9-9------------------------|
D|-----------------7---7---6--------7----------------------------------------|
A|---------------------------------------------------------------------------|
E|---------------------------------------------------------------------------|

e|---------------------------------------------------------------------------|
B|--9b10^^r-9b10^^r-9b10^^r-9b10^^r-9b10^^r-8b9^^r-7~-7~-7~-5~---------------|
G|---------------------------------------------------------------------------|
D|---------------------------------------------------------------------------|
A|---------------------------------------------------------------------------|
E|---------------------------------------------------------------------------|

        A    C#M          Bm       E
For en lykke der å få lov til å treffe
A          C#M  Bm             E
Folk i perfekt harmoni med seg sjøl
     A       C#M    Bm       E
Jeg var ikke det de hadde forventa
      A          C#M         Bm       E
Deres lykke blir større hvis jeg bare skygger
F#       (E C#)B        F      C      G
  Jeg var invitert, men gudene veit av hvem
F#        (E C#)B           F     C      G    E
  Jeg var invitert og jeg stjælte ingen ting

outro:
A-C#M-Bm-E x4 then on the 4th. E :

e|--------------------------------------13b14r-13b14r-------13b14r-13b14r----|
B|-------9-10~b11r-------10b12r-10-10------------------10--------------------|
G|--9-11------------------------------------------------------------------10-|
D|---------------------------------------------------------------------------|
A|---------------------------------------------------------------------------|
E|---------------------------------------------------------------------------|

e|--13b14^^^^r--10-------13b14r-13b14r---------------------------------------|
B|-----------------10-------------------10-9~-7~-5~--------------------------|
G|------------------------------------------------------1-2------------------|
D|---------------------------------------------------------------------------|
A|---------------------------------------------------------------------------|
E|---------------------------------------------------------------------------|


Lyrics from www.jokke.nu

| /  slide up
| \  slide down
| h  hammer-on
| p  pull-off
| ~  vibrato
| +  harmonic
| x  Mute note
| b  bend
| r  release
| ^  hold bend
| *  let ring
===============================================================================
Добавлено: 13.04.2016
Другие материалы по этой песне:
  • Аккорды и текст

Страница создана 13.04.2016
http://primanota.ru/jokke-and-valentinerne/invitert-chords.htm
Привет, Гость.
Предлагаем пройти революционный курс по гитаре.
Подарок от PrimaNota.Ru, забирай!