PrimaNota.ru - самый крупный в мире бесплатный архив песенных текстов, аккордов, табулатур и нот


Jojo - Find A Way - аккорды и текст, видео

Регистрация Запомнить меня
Войти через:  Facebook Google Twitter Vk Yandex Mail.ru

Jojo - Find A Way - аккорды и текст, видео

Печатать
Просмотров: 240
Find A Way
Jojo
Find A Way
Jojo feat. Bayje

tabbed by L.J34N
08-08-08


STANDARD TUNING


CHORDS USED

  Em  C7M    Am  D

e--0----0----0---2--|
B--0----0----1---3--|
G--0----0----2---2--|
D--2----2----2---0--|
A--2----3----0---x--|
E--0----x----x---x--|


INTRO

   Em          !   C7M          !    Am          !     D          !
e-----0--*--0--0--*----0--*--0--0--*----0--*--0--0--*----2--*--2--2---|
B-----0--m--0--0--m----0--m--0--0--m----1--m--1--1--m----3--m--3--3---|
G-----0--u--0--0--u----0--u--0--0--u----2--u--2--2--u----2--u--2--2---|
D--------t-----2--t-------t-----2--t-------t-----2--t--0----t--0--0---|
A--------e-----2--e--3----e--3--3--e--0----e--0--0--e-------e---------|
E---0----*--0--0--*-------*--------*-------*--------*-------*---------|


NOTES >> At the ! strum up with the back of your thumb > All chords should be strummed like this 
Добавлено: 25.07.2012
Другие материалы по этой песне:
  • Аккорды и текст

Страница создана 25.07.2012
http://primanota.ru/jojo/find-a-way-chords.htm
Привет, Гость.
Предлагаем пройти революционный курс по гитаре.
Подарок от PrimaNota.Ru, забирай!