PrimaNota.ru - самый крупный в мире бесплатный архив песенных текстов, аккордов, табулатур и нот


Joint Coconuts - Shiavone Love Thing - аккорды и текст, таба

Регистрация Запомнить меня
Войти через:  Facebook Google Twitter Vk Yandex Mail.ru

Joint Coconuts - Shiavone Love Thing - аккорды и текст, таба

Печатать
Просмотров: 76
Shiavone Love Thing
Joint Coconuts
		   GUITARS:Michael Gonzalez
    PERCUSSIONS:Patrick Hawkins
    VOLCALS and HARMONICAS:Jonathan Streb

    Here we go:
                   intro:


----------00000--------00-0----------00------------0--------
---2202p0-03033-2202p0-033 3--2202p0-03-----2202p0-0--------
---2202p0-11111-2202p0-11---1 2202p0-110h1--2202p0-1--------
---2202p0-22222-2202p0-2------2202p0-22---2-2202p0-2--------
----------22222--------2-------------22------------2--------
------------------------------------------------------------


 verses


--------------------------------------------------------------------
---------------------------------------------------------------------
---------------------------------------------------------------------
---7797977979------------- 7797977979---------------------------------
---5555555555-77979/77979\-5555555555-77979\77979\--------------------
--------------555555555555------------555555555555---------------------
  Jaaaaaaaaaaaaaaaane       Lauauauauauauauauauauaua


-----------------------------------------------------------------------
------------------------------------------------------75---------------
------------------------------------------------------756--------------
----------------------------557557557557/7797977979-----7--------------
--557557557557/-77979779799-333333333333/5555555555--------------------
--333333333333/555555555555--------------------------------------------
  Lilililililililililisa      sahahahahahahahalllara
repeat verse



   SOLO

---------------------------------------------
--3/7----55-- 55--55--55---------------------
--3/7----55-- 55--55--55-7p5-55---5----------  Just get funky for a while when
--3/7--7p-  7p- 7p-7 p------7--75-5----------  you play the solo!!!!
---------------------------------7-----------
---------------------------------------------




    repeat verses for as long as you like and break it down


                                                                 nutheads
                                                                 6650 carriage lane
                                                                 north canton oh.44721
                     For Joint Cocconut@ Fan Club info. -write:     
Добавлено: 24.11.2013
Другие материалы по этой песне:
  • Аккорды и текст

Страница создана 08.06.2012
http://primanota.ru/joint-coconuts/shiavone-love-thing-chords.htm
Привет, Гость.
Предлагаем пройти революционный курс по гитаре.
Подарок от PrimaNota.Ru, забирай!