PrimaNota.ru - самый крупный в мире бесплатный архив песенных текстов, аккордов, табулатур и нот


Joie De Vivre - You Ruined Everything That Was Ever Good - таба, видео

Регистрация Запомнить меня
Войти через:  Facebook Google Twitter Vk Yandex Mail.ru

Joie De Vivre - You Ruined Everything That Was Ever Good - таба, видео

Печатать
Просмотров: 126
(/) Slide Up  (\) Slide Down  (h) Hammer On  (p) Pull Off  (b) Bend (r) Release (v) Vibrato


Intro

E|--------------------------------------|
B|--------------------------------------|
G|--10p9--12--9---10p9--12--9---12--10--|
D|--10----10--10--10----10--10----------|
A|--8-----8---8---8-----8---8---10--8---|
E|--8-----8---8---8-----8---8-----------|

Chorus

E|--------|
B|-----1--|
G|--5--2--|
D|--5--3--|
A|--3--3--|
E|--------|

Verse

E|--------------------------------------------------------------|
B|--------------------------------------------------------------|
G|--12---------12---------12------10---------10---------10------|
D|------10---------10---------10------10---------10---------10--|
A|----------8----------8------------------8----------8----------|
E|--------------------------------------------------------------|

Chorus

Bridge

E|----------------|
B|----------------|
G|--10/12--10--5--|
D|----------------|
A|--8--10--8---3--|
E|----------------|

Ending

E|---------|
B|---------|
G|--10--5--|
D|--10--5--|
A|--8---3--|
E|---------|
Добавлено: 12.09.2013
Другие материалы по этой песне:
  • Аккорды и текст

Страница создана 12.09.2013
http://primanota.ru/joie-de-vivre/you-ruined-everything-that-was-ever-good-chords.htm
Привет, Гость.
Предлагаем пройти революционный курс по гитаре.
Подарок от PrimaNota.Ru, забирай!