PrimaNota.ru - самый крупный в мире бесплатный архив песенных текстов, аккордов, табулатур и нот


Johnson Nathan - 1st Arrangement - таба, видео

Регистрация Запомнить меня
Войти через:  Facebook Google Twitter Vk Yandex Mail.ru

Johnson Nathan - 1st Arrangement - таба, видео

Печатать
Просмотров: 72
1st Arrangement
Nathan Johnson

^ = hammer on/pull off

Arrangement: Section I
             Section I
             Section II
             Section III
             Section IV
             Section IV
             Section I

Section I:
e|--------------------|--------------------|
B|--------------------|--------------------|
G|---0--2--0--2-0-----|--2--4--2--5-4-2-0--|
D|--3--3--3--3---3-2-0|-2--2--2--2-------2-|
A|-3--3--3--3---------|0--0--0--0----------|
E|--------------------|--------------------|

e|----------------2^3^|2-----------------|
B|---6---5---4---3----|-3-3--------------|
G|--5-5-4-4-3-3-2-----|--2-2-0-----------|
D|-3---2---1---0------|-------3-2-0------|
A|--------------------|------------0-1-2-|
E|--------------------|------------------|

Section II
e|-----0-------0---|----0--------0----|
B|---1--1-1--1--1-1|--1--1-1---1--1-1-|
G|--2-2--2--2-2--2-|-2-2--2---2-2--2--|
D|-----------------|------------------|
A|-0---------------|------------------|
E|---------3-------|1--------0--------|

e|-----0-------0---|----0--------0----|
B|---1--1-1--1--1-1|--1--1-1---1--1-1-|
G|--2-2--2--2-2--2-|-2-2--2---2-2--2--|
D|-----------------|------------------|
A|-0---------------|------------------|
E|---------3-------|1--------0--------|

Section III:
e|-----0-------0---|----0-------0-----|
B|---1--1-1--1--1-1|--1--1-1--1--1----|
G|--2-2--2--2-2--2-|-2-2--2--2-2------|
D|-----------------|--------0---------|
A|-0-------2-------|3-------------3-2-|
E|-----------------|------------------|

e|-----0-------0---|----0-------0-----|
B|---1--1-1--1--1-1|--1--1-1--1--1----|
G|--2-2--2--2-2--2-|-2-2--2--2-2------|
D|-----------------|--------0---------|
A|-0-------2-------|3-------------3-2-|
E|-----------------|------------------|

Section IV:
e|-----0-------0-----|----0----------------|
B|---1--1-1--1--1----|--1--1-1-0-1-0-------|
G|--0-0--0--0-0------|-0-0--0-2-----2-0----|
D|-------------------|---------------------|
A|-3-------3-----3-2-|0----------------3-2-|
E|-------------------|---------------------|

e|----0-------0---|----0-------0-|
B|--1--1-1--1--1-1|--1--1-1--1---|
G|-0-0--0--0-0--0-|-0-0--0--0-0--|
D|----------------|--------------|
A|--------2-------|3-------3-----|
E|-3--------------|--------------|


________________________________________________________________
     
Добавлено: 04.08.2013
Вам также может быть интересно:
Другие материалы по этой песне:
  • Аккорды и текст

Страница создана 04.08.2013
http://primanota.ru/johnson-nathan/1st-arrangement-chords.htm
Привет, Гость.
Предлагаем пройти революционный курс по гитаре.
Подарок от PrimaNota.Ru, забирай!