PrimaNota.ru - самый крупный в мире бесплатный архив песенных текстов, аккордов, табулатур и нот


Johnossi - Party With My Pain - таба, видео

Регистрация Запомнить меня
Войти через:  Facebook Google Twitter Vk Yandex Mail.ru

Johnossi - Party With My Pain - таба, видео

Печатать
Просмотров: 133
-----------------------------
Party With My Pain - Johnossi
-----------------------------

Tabbed by:d-max

Tuning:Standard

With Reverb or Delay or a combination of both.

Intro
e|--------------------------|
B|--------------------------|
G|--------------------------|     x3
D|--------------------------|
A|----------------------3\2-|
E|-3-5---3-5---3-5---3-5----|
+
e|-----------------------------|
B|-----------------------------|
G|-----------------------------|  x1
D|-----------------------------|
A|-------------------------3\2-|
E|-3-5-xx-3-5-xx-3-5-xx-3-5----|



Verse (pm)
e|------------------------------|------------------------------|
B|------------------------------|------------------------------|
G|------------------------------|------------------------------|
D|------------------------------|--------3---------------------|
A|--------------------------3---|-3-5-xx---5-xx-3-5-xx-3-5-3---|
E|-3-5-xx-3-5-xx-3-5-xx-3-5---5-|----------------------------5-|

e|------------------------------|------------------------------|
B|------------------------------|------------------------------|
G|------------------------------|------------------------------|
D|------------------------------|--------3---------------------|
A|--------3-----------------3---|-3-5-xx---5-xx-3-5-xx---------|
E|-3-5-xx---5-xx-3-5-xx-3-5---5-|------------------------------|


That's the way I play Intro and Verse but I think the original from John is like this:
e|--------------------------|
B|--------------------------|
G|--------------------------|      the notes are the same, it's just a matter
D|--------------------------|      of how you place your fingers. maybe this 
A|---0-----0-----0----0-3\2-|      way is more comfortable for you.
E|-3-----3-----3----3-------|

Now you just have to adapt this pattern to the Verse. The dead notes (xx) stay where they are.


Chorus (You have to figure the rhythm out by yourself)
e|---------------------------|
B|---------------------------|
G|-2--2--5--5--7--7--9-7-5-7-|     x4
D|-2--2--5--5--7--7--9-7-5-7-|
A|-0--0--3--3--5--5--7-5-3-5-|
E|---------------------------|


Bridge ("You should know I never wanted to be in this ocean...")
e|---------------------------------|
B|---------------------------------|
G|1010101010101010-7-7-7-7-7-5-7-9-|     x3
D|1010101010101010-7-7-7-7-7-5-7-9-|
A|-8-8-8-8-8-8-8-8-5-5-5-5-5-3-5-7-|
E|---------------------------------|
+
e|---------------------------------|
B|---------------------------------|
G|1010101010101010-7-\\\-----------|     x1
D|1010101010101010-7-\\\-----------|
A|-8-8-8-8-8-8-8-8-5-\\\-----------|
E|---------------------------------|


Bridge 2 ("I crumble in my...")
e|-xxxxxxxxxxxxxxxxxxxxxxxx--------|
B|-xxxxxxxxxxxxxxxxxxxxxxxx--------|
G|-xxxxxxxxxxxxxxxxxxxxxxxx--------|
D|-xxxxxxxxxxxxxxxxxxxxxxxx--------|
A|-xxxxxxxxxxxxxxxxxxxxxxxx--------|
E|-xxxxxxxxxxxxxxxxxxxxxxxx--------|


Order
-Intro
-Verse
-Chorus
-Intro
-Verse
-Chrorus
-Bridge
-Bridge 2
-Chorus
-(Pause - drum part)
-Intro
-Verse
-Chorus
-Bridge
-Chorus




| /  slide up
| \  slide down
| h  hammer-on
| p  pull-off
| ~  vibrato
| +  harmonic
| x  Mute note
============================================================================
Добавлено: 27.03.2012
Другие материалы по этой песне:
  • Аккорды и текст

Страница создана 26.02.2012
http://primanota.ru/johnossi/party-with-my-pain-chords.htm
Привет, Гость.
Предлагаем пройти революционный курс по гитаре.
Подарок от PrimaNota.Ru, забирай!