PrimaNota.ru - самый крупный в мире бесплатный архив песенных текстов, аккордов, табулатур и нот


Johnossi - Chris Is Dead - текст песни, таба, видео

Регистрация Запомнить меня
Войти через:  Facebook Google Twitter Vk Yandex Mail.ru

Johnossi - Chris Is Dead - текст песни, таба, видео

Печатать
Просмотров: 112
Johnossi
Chris Is Dead
tabbed by Leexen (leexen_@hotmail.com
Capo: 6: th Fret


Intro
   N.C           G             D             G
E|-------------|-----3-3---3-|-2-2-3-2-3-2-|-----3-3-----|
B|-------------|-----0-0---0-|-3-3-3-3-3-3-|-----0-0-----|
G|-------------|-----0-0---0-|-2-2-2-2-2-2-|-----0-0-----|
D|-0-0-2-0-0-0-|-0-0-----0---|-0-0-0-0-0-0-|-0-0-----0-0-|
A|-0-0-2-0-2-0-|-2-2-----2---|-------------|-2-2-----x-2-|
E|-0-0-0-0-2-0-|-3-3-----3---|-------------|-3-3-----2-3-|

   N.C           C             Am            G
E|-------------|-----0-0-----|-----0-0-----|-----3-3-----|
B|-------------|-----1-1---1-|-1-1-1-1-1-1-|-----0-0-----|
G|-0-0-2-0-0-0-|-0-0-0-0-0-2-|-2-2-2-2-2-2-|-----0-0-----|
D|-0-0-2-0-2-0-|-2-2-----2-2-|-2-2-----2-2-|-0--0----0-2-|
A|-0-0-0-0-2-0-|-3-3-----2-0-|-0-0-----0-0-|-2--2----x-2-|
E|-------------|-------------|-------------|-3--3----2-0-|

   Em            C             D             G
E|-----0-0-----|-----0-0---2-|-2-2-3-2-3-2-|-----3-3-----|
B|-----0-0-----|-----1-1-1-3-|-3-3-3-3-3-3-|-----0-0-----|
G|-----0-0-----|-0-0-0-0-0-2-|-2-2-2-2-2-2-|-----0-0-----|
D|-2-2-----2-2-|-2-2-----2-0-|-0-0-0-0-0-0-|-0-0-----0-0-|
A|-2-2-----2-2-|-3-3-----2---|-------------|-2-2-----x-2-|
E|-0-0-----0-0-|-------------|-------------|-3-3-----2-3-|

   N.C
E|-------------|
B|-------------|
G|-0-0-2-0-----|
D|-0-0-2-0-2-0-|
A|-0-0-0-0-2-0-|
E|---------0-0-| and then the song begin to plays in G 


Vers1:
G F C Am D/Dsus x2
Ref:
G Em C D/Dsus
Vers2:
G F C Am D/Dsus x2
Ref.
G Em C D/Dsus
End:
G Em G Em...
Добавлено: 09.04.2012
Другие материалы по этой песне:
  • Аккорды и текст

Страница создана 09.04.2012
http://primanota.ru/johnossi/chris-is-dead-chords.htm
Привет, Гость.
Предлагаем пройти революционный курс по гитаре.
Подарок от PrimaNota.Ru, забирай!