PrimaNota.ru - самый крупный в мире бесплатный архив песенных текстов, аккордов, табулатур и нот


Johnny Winter - Star Spangled Banner - таба, видео

Регистрация Запомнить меня
Войти через:  Facebook Google Twitter Vk Yandex Mail.ru

Johnny Winter - Star Spangled Banner - таба, видео

Печатать
Просмотров: 85
Уроки эстрадного вокала в Санкт-Петербурге
            The Star Spangled Banner
                       as played by 
                            Justin

-------------------------------------------------------
--------------------------8--------------------------
----------------------8-----10-8------------------
---8--------------8----------------------8--8-----
-------10-----10------------------10-----------
-----------11---------------------------------------

-----------------------------------------------------
-------8--------------------------------------------
----8----10--8--7-------7--8--8------------
-8-------------------10-----------8--------------
-------------------------------------10------------
------------------------------------------11--------
                       (repeat once)

-----------------------------------------------------------------
--8-8-8---10---11-11---9-8-----8--9-9----9-8--
------------------------------10-------------------------------
------------------------------------------------------------------
------------------------------------------------------------------
------------------------------------------------------------------


----------------------------------------------------------
-----8---------------------------------------------------
-10-----10--8-7-----7--8------------------------
-------------------10------------8-8---8-10------
------------------------------10-----------------------
---------------------------------------------------------

-------------------------------------------------------------
-------------------------------9--8-----------------------
--8-8-8--7---------------10-------10--8--7------
---------------10-10-10------------------------8---
------------------------------------------------------------
------------------------------------------------------------

-----------------11---------------------------11-------
-----------8--11-------------8-9-8----------11----
-------8--------------8-10------------10-8---------
--10-----------------------------------------------------
------------------------------------------------------------
-----------------------------------------------------------


     
Добавлено: 03.08.2013
Другие материалы по этой песне:
  • Аккорды и текст

Страница создана 03.08.2013
http://primanota.ru/johnny-winter/star-spangled-banner-chords.htm
Привет, Гость.
Предлагаем пройти революционный курс по гитаре.
Подарок от PrimaNota.Ru, забирай!