PrimaNota.ru - самый крупный в мире бесплатный архив песенных текстов, аккордов, табулатур и нот


Johnny Winter - Leavin - таба, видео

Регистрация Запомнить меня
Войти через:  Facebook Google Twitter Vk Yandex Mail.ru

Johnny Winter - Leavin - таба, видео

Печатать
Просмотров: 138
/ - slide up
\ - slide down
h - hammer on
p - pull off
s - slide between notes
~ - vibrato
* - notes played without slide

played in Open G (D G D G B D from low to high)

                                                        (*               *)    
D-|-/12--12--12--12--12\---------3--3-----/8-----\5-p-0----0-----0---0---0-|
B-|-/12--12--12--12--12\--0--/3--------3------8------------0-----0---0---0-|
G-|------------------------------------------------------------------------|
D-|------------------------------------------------------3---3-2--2-1--1--0|
G-|------------------------------------------------------------------------|
D-|------------------------------------------------------------------------|



|--------0-----0-----------------------------------------------------------|
|--------------------------------------------------------------------------|
|-----------------/3--0----0----0----0--/3---0------0------0------0--/3--0-|
|------0----0-----/3--0----0----0----0--/3---0------0------0------0--/3--0-|
|--/5----------------------------------------------------------------------|
|--------------------------------------------------------------------------|
           I woke       up this morning      at the break of day


|--------------------------------------------------------------------------|
|--------------------------------------------------------------------------|
|------0--------0--------0--------/3----0------0------0------0------/5--5~-|
|------0--------0--------0--------/3----0------0------0------0------/5--5~-|
|--------------------------------------------------------------------------|
|--------------------------------------------------------------------------|
  looked over on the pillow  where my rider oh used to lay  I woke

                                                                               
|------------------------------------------------0-/5~----------------0-/5~|
|--------------------------------------------------------------------------|
|-------/5--5~--/5--5~----0--/3~--0------0---/3s5-------0-/3--0--/3s5------|
|-------/5--5~--/5--5~----0--/3~-----/3------------------------------------|
|--------------------------------------------------------------------------|
|--------------------------------------------------------------------------|
 up this morning      oh at the break of day

                                                                               
|--------------------------------------------------------------------------|
|--------------------------------------------------------------------------|
|----0-----/7--7~--------/7--7~----------------/5--5--5-s-3-p-0-/3~--0-----|
|----------/7--7~--------/7--7~----------------/5--5--------------------/3-|
|--------------------------------------------------------------------------|
|--------------------------------------------------------------------------|
 you know I      love these stills on the pillow     where my rider used to
 
                                                                              
|-------0-3-2-0--/8-/8-----------------------------------------------------|
|-----------------------8-----8\-------------------------------------------|
|--0----------------------/10------5-s-7--7---------/3--0----0----0--------|
|---------------------------------------------0--0--/3--0----0----0--------|
|--------------------------------------------------------------------------|
|--------------------------------------------------------------------------|
 lay                                            I got the    leavin' blues

 
|--------------------------------------------------------------------------|
|--------------------------------------------------------------------------|
|--0--/3---0-----0-----0-----0--/3--0-------0-------0-------0-------/3--0--|
|--0--/3---0-----0-----0-----0--/3--0-------------------------------/3--0--|
|--------------------------------------------------------------------------|
|--------------------------------------------------------------------------|
 child I can't stay here long        been mistreated child and I'm a      oh


|--------------------------------------------/5--5~------------------------|
|--------------------------------------------/5--5~------------------------|
|------0------0------0----/5--5~-----/5--5~--/5--5~--0--/3~---0---/3---0---|
|-------------------------/5--5~-----/5--5~----------0--/3~----------------|
|--------------------------------------------------------------------------|
|--------------------------------------------------------------------------|
 going home I got them old      leavin' blues       I can't stay here long


|-----0-/5~----------------0-/5~----------7~---------7~----------/5--5~\p-0|
|-------------------------------------/7--7~-----/7--7~----------/5--5~\p-0|
|/3s5--------0-/3--0--/3s5--------0---/7--7~-----/7--7~----------/5--5~\p-0|
|-------------------------------------/7---------/7------------------------|
|--------------------------------------------------------------------------|
|--------------------------------------------------------------------------|
                                   you know I've been mistreated child


|-/3----------------0-3-2-0--------------------------0--0--------3---3---3-|
|-/3-------------------------------------------------0--0--1-s-3---3---3---|
|-/3-----0--/3--0-----------/3--0-----0----5-s-7-7-------------------------|
|---------------------------------/3----0--------7-------------------------|
|--------------------------------------------------------------------------|
|--------------------------------------------------------------------------|
 and I'm going home                        well, alright


|--3---3---3----0-------0-/5~--0--------3---3---3---3---3---3---0----------|
|3---3---3---3----\1--------------1-s-3---3---3---3---3---3---3---/12------|
|--------------------/3------------------------------------------------12--|
|--------------------------------------------------------------------------|
|--------------------------------------------------------------------------|
|--------------------------------------------------------------------------|



|--------------------/10-10~-10-s-8---/8-----/10~--10-s-8---/8~------------|
|-----------------------------------8----8----------------8----------------|
|-\10-/12~-----12-12----------------------------------------------0----0---|
|-------------------------------------------------------------------/3-----|
|--------------------------------------------------------------------------|
|--------------------------------------------------------------------------|
         h e y

 
|-0-3-2-0--/8-----------------------0-0-0-/7~-0--/7~--12\--------3---------|
|-------------8--------------------------------------------0-/3------------|
|---------------/10-----------12-12--------------------------------/3-/3---|
|-------------------/12---/12----------------------------------------------|
|--------------------------------------------------------------------------|
|--------------------------------------------------------------------------|



|-/8-------8---------------------------------------------------------------|
|----8--/8---8-----/8------------------------------------------------------|
|--------------/10-----5s7-7-7--0-/3--0-----0-----0-----0----/3--0-----0---|
|-------------------------------0-/3--0-----0-----0-----0----/3--0-----0---|
|--------------------------------------------------------------------------|
|--------------------------------------------------------------------------|
                                      sometimes I drink wiskey     sometimes


|--------------------------------------------------------------------------|
|--------------------------------------------------------------------------|
|0----0-/3--0------0------0------0------/3--0-------0-------0-------0------|
|0----0-/3--0------0------0------0------/3--0-------0-------0-------0------|
|--------------------------------------------------------------------------|
|--------------------------------------------------------------------------|
 wine         I've been mistreated Lord I     don't mind dyin' you know I


|----------------------------------------------------------------------0/5~|
|--------------------------------------------------------------------------|
|/5--5~-----/5--5~------------/5--5~-----0----/3-----0----/3-----0-3s5-----|
|/5--5~-----/5--5~------------/5--5~-----0----/3---------------------------|
|--------------------------------------------------------------------------|
|--------------------------------------------------------------------------|
       sometimes drink whiskey       Lord I feel like a little wine


|---------------0-/5~------------------------------------------------------|
|--------------------------------------------------------------------------|
|-0--/3--0--3s5-----------0-----/7--7~-----/7--7~-----/5--5~--5-s-3-p-0-/3-|
|-------------------------------/7--7~-----/7--7~-----/5--5~---------------|
|--------------------------------------------------------------------------|
|--------------------------------------------------------------------------|
                      you know I       been mistreated       baby and I don't


|-----------0-3-2-0--8----12\-0-8--0--/3--0-----8\-------------------------|
|-----------------------8--------------------------------------------------|
|-0------0--------------------------------------------0---0---0---0--/3--0-|
|----/3-----------------------------------------------0---0---0---0--/3--0-|
|--------------------------------------------------------------------------|
|--------------------------------------------------------------------------|
 mind dyin'                                 I got my    32-20 and my


|--------------------------------------------------------------------------|
|--------------------------------------------------------------------------|
|-0--0--0--/3--0---------0---------0---------0------/3----0----0----0----0-|
|-0--0--0--/3--0---------0---------0---------0------/3----0----0----0----0-|
|--------------------------------------------------------------------------|
|--------------------------------------------------------------------------|
 my .44          shotgun on my shoulder you know I'm   bound to go I got no


|-------------------------------------------------0-/5~------------0-/5~---|
|--------------------------------------------------------------------------|
|-/5--5~--/5--5~--/5--5~--5s3--0--/3--0-----0-3s5-------0-/3-0-3s5-------0-|
|-/5--5~--/5--5~--/5--5~----------------/3---------------------------------|
|--------------------------------------------------------------------------|
|--------------------------------------------------------------------------|
          32  20          Lord fetching my 44


|-----------------------------/5--5~------------------------------0-3-2-0--|
|-----------------------------/5--5~---------------------------------------|
|-/7------7~-----/7------7~---/5--5~--0---/3---0--------0------------------|
|--------------------------------------------------------------------------|
|--------------------------------------------------------------------------|
|--------------------------------------------------------------------------|
 loaded shotgun on my shoulder       yeah he Lord I'm bound to go


|-------------/5~----------------0-----------12----12---------3-/5-/8------|
|----------------------------------0-10-s-12----12----12\--/3----------8---|
|-/3--0-----0-------5-s-7--7--7--------------------------------------------|
|-------/3-----------------------------------------------------------------|
|--------------------------------------------------------------------------|
|--------------------------------------------------------------------------|
                 goin' home now


|-10s8s5-/8-----0----3--3--3--3---------------0-/5~-5s3p0-/3~--/10~--\8----|
|------------8----/3------------/3-s-1-------------------------------------|
|--------------------------------------/3--0-------------------------------|
|--------------------------------------------------------------------------|
|--------------------------------------------------------------------------|
|--------------------------------------------------------------------------|



|-0--0-/5------------/8---------------------|
|------------\3--\1-----8------\8-----------|
|--------------------------/10--------------|
|-------------------------------------------|
|-------------------------------------------|
|-------------------------------------------|
        alright                   fade out

Добавлено: 25.04.2012
Другие материалы по этой песне:
  • Аккорды и текст

Страница создана 25.04.2012
http://primanota.ru/johnny-winter/leavin-chords.htm
Привет, Гость.
Предлагаем пройти революционный курс по гитаре.
Подарок от PrimaNota.Ru, забирай!