PrimaNota.ru - самый крупный в мире бесплатный архив песенных текстов, аккордов, табулатур и нот


Johnny Winter - Good Morning Little School Girl - таба, видео

Регистрация Запомнить меня
Войти через:  Facebook Google Twitter Vk Yandex Mail.ru

Johnny Winter - Good Morning Little School Girl - таба, видео

Печатать
Просмотров: 101
Уроки эстрадного вокала в Санкт-Петербурге
Q=176
4/4
Gtr I
                           ~~                                       ~~~~~~~
  Q   E     Q      E E E   Q.   E +H       Q   E     Q      E E E   H    H
|-----7-----7------------|---------------|-----7-----7------------|-----------|
|----10b12-10b12--10-7---|---------------|----10b12-10b12--10-7---|-----------|
|----------------------9-|-7-------------|----------------------9-|-7---------|
|------------------------|------9-(9)----|------------------------|------9----|
|------------------------|---------------|------------------------|-----------|
|------------------------|---------------|------------------------|-----------|


                     |-3--|
  E Q      E E E    +E  E E   H    Q   Q
|---------------------------|-------------|
|---------10----------------|-------------|
|---9b10-------9b10r(9)-7---|-9----7/-----|
|-------------------------9-|-------------|
|---------------------------|-------------|
|---------------------------|-------------|


                     |-3--|          |-3-|
  E Q      E E E    +E  E E   Q.  E  E E E E E
|---------------------------|-------------------|
|---------10----------------|-------------------|
|---9b10-------9b10r(9)-7---|-9h==9h10p9p7------|
|-------------------------9-|--------------9p7--|
|---------------------------|-------------------|
|---------------------------|-------------------|


  Q  Q  E Q  E   Q  E E   +E  E E E   Q  E E E E Q    +Q   E E E E E E
|--------------|--------------------|---------------|------------------|
|--------------|--------------------|---------------|------------------|
|--------------|--------------------|---------------|------------------|
|-9--7---------|--------------------|--------9---9--|-(9)------7h9p7---|
|-------9-9--9-|-7--5-7b8r(7)-5-----|----7h9---9----|------7h9-------9-|
|--------------|----------------7-5-|-7-------------|------------------|


          |--3--| |-3-|
   Q  Q  +E  E  E E E E   Q  Q  Q  Q    Q   Q     +Q    Q    Q    +Q   Q  Q
|-----------------------|-------------|--------------------|-----------------|
|-----------------------|-------------|----10----------10--|-----------------|
|-----9--(9)------------|-------------|-----9b10r=(9)---7--|-----------------|
|-11---------9h10p9p7---|-9--7--------|--------------------|-----------------|
|---------------------9-|-------7--9--|--------------------|-7b8r=(7)--5-----|
|-----------------------|-------------|--------------------|--------------7--|


  Q  +E. S Q  E E   Q      E E    +E  E E E
|-----------------|-------------------------|
|-----------------|-------10----------------|
|----------7--9p7-|-9b10-----9b10r(9)-7-----|
|-9--(9)-9--------|---------------------9-7-|
|-----------------|-------------------------|
|-----------------|-------------------------|


                       ~~~~~~~~~~~
  Q   Q      E     +E  Q      +Q   Q  H
|-----7------7------------||---------------|
|----10b12--10b12r(10)----||o--------------|
|----------------------7--||--(7)----------|
|-9-----------------------||---------------|
|-------------------------||o--------------|
|-------------------------||---------------|


                           ~
  Q   E     Q      E E E   H    Q   Q
|-----7-----7------------|-------------|
|----10b12-10b12--10-7---|-------------|
|----------------------9-|-7-----------|
|------------------------|------9/-----|
|------------------------|-------------|
|------------------------|-------------|


                           ~
  Q   E     Q      E E E   H    E  E  Q
|-----7-----7------------|---------------|
|----10b12-10b12--10-7---|---------------|
|----------------------9-|-7-------------|
|------------------------|------7s12\----|
|------------------------|---------------|
|------------------------|---------------|


  Q  Q  Q  Q    Q  Q  Q  Q    Q  Q  Q  Q    Q  Q  E Q  E
|----0-----0--|----0-----0--|----0--------|--------------|
|----3-----3--|----3-----3--|----3--------|--------------|
|----1-----1--|----1-----1--|----1--------|--------------|
|-2--2-----2--|-2--2-----2--|-2--2--------|-9--7---------|
|-------2-----|-------2-----|-------0h=2--|-------9-9--9-|
|-------------|-------------|-------------|--------------|


  Q  E E   +E  E E E   Q  E E E E Q    +H     Q  Q    Q   Q  Q   Q
|--------------------|---------------|--------------|---------------|
|--------------------|---------------|--------------|----10-----10--|
|--------------------|---------------|--------------|-----9------9--|
|--------------------|--------9---9--|-(9)----------|-----8------8--|
|-7--5-7b8r(7)-5-----|----7h9---9----|--------7--8--|-9-------------|
|----------------7-5-|-7-------------|--------------|---------------|


  Q   Q  Q  Q     Q  Q  Q  Q    Q  Q  H      Q  +E. S Q  E E
|---------------|-------------|------------|-----------------|
|----10--x------|----5-----5--|----5-------|-----------------|
|-----9--x--8\--|-7--7-----7--|----7-------|----------7--9p7-|
|-----8--x--7\--|-6--6-----6--|----6-------|-9--(9)-9--------|
|-9---------8\--|-7--------7--|-7-----0----|-----------------|
|---------------|-------7-----|------------|-----------------|


  Q      E E    +E  E E E   Q   Q      Q      Q
|-------------------------|-----7------7------7-------||
|-------10----------------|----10b12--10b12--10b12===o||
|-9b10-----9b10r(9)-7-----|---------------------------||
|---------------------9-7-|-9-------------------------||
|-------------------------|--------------------------o||
|-------------------------|---------------------------||


   +Q     E     Q      E E E   Q  +E. S +H
|--(7)----7-----7------------|-----------------|
|-(10)r--10b12-10b12--10-7---|-----------------|
|--------------------------9-|-7--(7)----------|
|----------------------------|--------9-(9)----|
|----------------------------|-----------------|
|----------------------------|-----------------|


                           ~~~~~~~
                                       |-3-| |--3---| |-3-| |--3---|
  Q   E     Q      E E E   H    H      E E E E    E E E E E E    E E
|-----7-----7------------|-----------|-------------------------------|
|----10b12-10b12--10-7---|-----------|------------7--------------7---|
|----------------------9-|-7---------|-----7-9b10---9-7---7-9b10---9-|
|------------------------|------9----|------------------9------------|
|------------------------|-----------|-------------------------------|
|------------------------|-----------|-------------------------------|


  |-3-| |--3---|  |-3--| |-3--|
  E E E E    E E  E E  E E  E E
|--------------7------10-7----7-|
|------------7---10p7------10---|
|-7---7-9b10--------------------|
|---9---------------------------|
|-------------------------------|
|-------------------------------|


         |-3--| |-3--|  |-3-|    |-3-| |-3-| |-3-| |-3-|
   Q     E  E E E E  E  E E E    E E E E E E E E E E E E
|--------7--------------------|--------------------------|
|-10b12----10-7---7-10-10p7---|--------------------------|
|---------------9-----------x-|-10p9-7-9-7-x-----7-------|
|-----------------------------|--------------7h9---------|
|-----------------------------|--------------------9p7s5-|
|-----------------------------|--------------------------|


                                |----3-----|  |--3--|
  Q  Q   E  E  E  E    E     E  E     +E   E  E  E  E  Q
|-------------------|-------14----------------------------|
|----------12-14p12-|-14b16----14b15r(14)-12-14p12----14--|
|-------13----------|------------------------------13-----|
|-------------------|-------------------------------------|
|-------------------|-------------------------------------|
|-7-----------------|-------------------------------------|


   Q   Q      E     +E  Q    Q  E Q  E Q
|--------------------------|--------------|
|-12s=10b12--10b12r(10)----|------7--9-7--|
|-----------------------7--|--------------|
|--------------------------|--------------|
|--------------------------|--------------|
|--------------------------|--------------|


  Q     Q.   E    +E  E       +Q    H    Q
|-------9-------------------|---------------|
|-9b11-------9b10r(9)-------|-------7-------|
|---------------------9b11==|=(9)r----------|
|---------------------------|---------------|
|---------------------------|---------------|
|---------------------------|---------------|


  Q   Q.      E     +E   E    Q.    E     +E   E  E  E
|----12b14---12b14r(12)-10-|-12----12b14r(12)-10-------|
|--------------------------|---------------------12-10-|
|--------------------------|---------------------------|
|--------------------------|---------------------------|
|--------------------------|---------------------------|
|--------------------------|---------------------------|


                            |--3---| |-3-| |-3-|
   E  E Q.   Q.     E E    +E  +E  E E E E E E E
|-------7----7----|-7----------------------------|
|-12\---7----7----|-7----------------------------|
|-----------------|---9b10r(9)-(9)-7-------------|
|-----------------|----------------------7-------|
|-----------------|------------------7h9---9p7s5-|
|-----------------|------------------------------|


  Q  T S. +E  T S. +E  T S. +E
|-------------------------------*|
|-------------------------------*|
|-------------------------------*|
|----7h9--(9)-7h9--(9)-7h9--(9)-*|
|-------------------------------*|
|-7-----------------------------*|
Добавлено: 16.10.2014
Другие материалы по этой песне:

Страница создана 14.03.2012
http://primanota.ru/johnny-winter/good-morning-little-school-girl-chords.htm
Привет, Гость.
Предлагаем пройти революционный курс по гитаре.
Подарок от PrimaNota.Ru, забирай!