PrimaNota.ru - самый крупный в мире бесплатный архив песенных текстов, аккордов, табулатур и нот


Johnny Winter - Broke Down Engine - таба, видео

Регистрация Запомнить меня
Войти через:  Facebook Google Twitter Vk Yandex Mail.ru

Johnny Winter - Broke Down Engine - таба, видео

Печатать
Просмотров: 86
Уроки эстрадного вокала в Санкт-Петербурге
D-|------------/12-/12-/12\--0-----------------0-------0-------------------|
A-|---------------------------0------------------3-/5~--0------------------|
F#|------------------------------\1-----------------------\1---------------|
D-|-------0-------------------------/3-0---0-----------------/3-0---0----0-|
A-|--------------------------------------3------------------------3--------|
D-|-3-s-5---0--------------------------------0-----------------------/3--0-|


  (* *)                                     (*                     *)
|--7-7-0----------------0-0-0--0-0-----------4---4---4---4----4----4-------|
|--8-8------------------0-0-0--0-0-----------3---3---3---3----3----3-------|
|--------\1-------------0-0-0--0-0-----------3---3---3---3----3----3-------|
|-----------/3-0---0------------------0------0---0---0---0----0----0-------|
|----------------3---------------------------------------------------------|
|--------------------0-------------/3---0----------------------------------|
                                           Feel like a broke down engine

          (*               *)
|----------4-4-4-4---4-----4------------------0-/12\-0----------------0----|
|----------3-3-3-3---3-----3------------------0-/12\-0------------------3--|
|-\1-------3-3-3-3---3-----3---------------------------\1------------------|
|----/3-0--0-0-0-0---0-----0---------0-------------------/3-0---0----------|
|-------------------------------------------------------------3------------|
|------------------------------/3---------0-----------------------0--------|
  ma - ma              lost my drivin' wheel

                     (*                 *)
|-----0------------0--0--0-0-0-0-------------------------------------------|
|-/5~--0-----------0--2--3-3-3-3-------------8------8----8----8------8-8-8-|
|---------\1-------0--2--3-3-3-3-------------8------8----8----8------8-8-8-|
|------------/3-0--0--0--0-0-0-0-------------5------5----5----5------5-5-5-|
|--------------------------------------------5------5----5----5------5-5-5-|
|---------------------------------3-s-5-5----------------------------------|
                                 you're like a broke down engine mama

 (*     *)
|------------------------------------------------/12-12-12-12-10------------|
|-----------8--8-8-8--8------------------------------------------/12-\10----|
|-----------8--8-8-8--8--------------------------------------------------/12|
|-----------5--5-5-5--5------------------0----------------------------------|
|-----------5--5-5-5--5-----------------------------------------------------|
|-3-s-5-5--------------------------/3---------0-----------------------------|
                     Lord, lost my drivin' wheel

                                                 (*
|--------0--------------------------0---------0------------7---7---7---7----|
|--------0----0-/5-\3-0---------------/5s3-/5--0-----------8---8---8---8----|
|----------/3-----------3-\1------------------------------------------------|
|-12----------------------------0-------------------------------------------|
|----------------------------/3--------------------------0------------------|
|----12---------------------------0----------------3-s-5--------------------|
                                                              got me all tore

     *)            (*               *)                         (*
|----7--------------7-7-7-7----7----7-------------------------------0-----0-|
|----8--------------8-8-8-8----8----8-----------------------------0-----0---|
|---------\1----------------------------------------------------------------|
|-------------/3-------------------------------0----------------------------|
|---------------------------------------------------------------3-----2-----|
|-----------------0----------------------/3---------0-----------------------|
  down and lonesome        huhu you know exactly how to make a good man feel

                 *)                                        (*
|-----0--0--0--0-0-0----------------0--0--0-0-0-------------4---4---4---4---|
|---0-------2--3-3-0----------------0--0--0-0-0-------------3---3---3---3---|
|-----------2--3-3-0-\1-------------0--0--0-0-0-------------3---3---3---3---|
|-----------0--0-0-0----/3-0---0----0--0--0-0-0-------0-----0---0---0---0---|
|-1----0---------------------3----------------------------------------------|
|---------0----------------------0--------------3-s-5---0-------------------|
                                                          I've been shootin

      *)            (*           *)
|-4---4--------------4-4-4-4--4--4----------------0-/12-12-12-12-10---------|
|-3---3--------------3-3-3-3--3--3----------------0-----------------/12-\10-|
|-3---3--\1----------3-3-3-3--3--3------------------------------------------|
|-0---0-----/3--0----0-0-0-0--0--0---------0--------------------------------|
|---------------------------------------------------------------------------|
|------------------------------------/3---------0---------------------------|
 craps and gamblin'  mama believe I done got broke

                                                              (*          *)
|-----------0----------------------------0---------0-----------7--7--7--7-7-|
|-----------0-----0-/5-\3-0----------------/5s3-/5--0----------8--8--8--8-8-|
|-/12----------/3-----------3-\1-----------------------\1-------------------|
|-----12----------------------------0---------------------/3-0--------------|
|--------------------------------/3-----------------------------------------|
|--------12---------------------------0-------------------------------------|

|---------------------------------------------------------------------------|
|---------------------------------------------------------------------------|
|-0--3--/5---5---5-----3----/5---5---5----3--/5-----------------------------|
|-0--3--/5---5---5-----3----/5---5---5----3--/5--------------------------0--|
|-0--3--/5---5---5-----3----/5---5---5----3--/5-----------------------------|
|-0--3--/5---5---5-----3----/5---5---5----3--/5--------------------/3-------|
          been shootin' craps and gamblin'      woman I believe I done got

                                                                (*        *)
|-----0-/12-12-12-12-10-----------------0---------0-----------0--0--0-0-0-0-|
|-----0----------------/12-\10------------/5s3-/5--0----------0--2--3-3-3-3-|
|-----------------------------/12---------------------\1------0--2--3-3-3-3-|
|---------------------------------12---------------------/3-0-0--0--0-0-0-0-|
|---------------------------------------------------------------------------|
|--0---------------------------------12-------------------------------------|
 broke


|---------------------------------------------------------------------------|
|---------------------------------------------------------------------------|
|---------------------------------------------------------------------------|
|-----------------------------------0-3--------------------------------0----|
|-------0-----------------------0-3-----------------------------------------|
|-3-s-5------------------------------------------------------------/3-----0-|
         had to pawn my mean .44       man and all my ready clothes are sold

 (*                       *)                                         (*
|-----0----0----0-------0-0----------------/12-/12-/12-0-----------0--0--0--|
|---0----0----0---------2-3----------------/12-/12-/12--0----------0--3--5--|
|-----------------0-----2-3--\1---------------------------\1-------0--0--0--|
|-----------------------0-0-----/3-0---0---------------------/3-0-----------|
|-3----2----1------------------------3--------------------------------------|
|--------------------0-------------------0----------------------------------|
  mhhmhmhmhmhmhmhhmh

    *)      (*                  *)           (*                *)
|-0-0--------4--4--4--4----4----4-------------4--4--4--4---4---4------------|
|-5-5--------3--3--3--3----3----3-------------3--3--3--3---3---3------------|
|-0-0--------3--3--3--3----3----3-------------3--3--3--3---3---3------------|
|-------0----0--0--0--0----0----0-------0-----0--0--0--0---0---0-----0------|
|---------------------------------------------------------------------------|
|----/3---0-------------------------/3-----0---------------------/3------0--|
           man I went down to my prayin ground   and I fell down on my knees

   (*     *)                   (*   *)
|-------0-----0-----------------7-7-7-0------0--------------/12-/12-/12-0---|
|-----0-----0-------------------8-8-8---0-/5----------------/12-/12-/12--0--|
|---------------3s1----------------------------\1---------------------------|
|-------------------/3-0---0----------------------/3-0---0------------------|
|-0-3-----2--------------3-----------------------------3--------------------|
|----------------------------0-----------------------------0----------------|

|-------------------------------------------------------------------0-/12\-0|
|-------------------------------------------------------------------0-/12\-0|
|-3-/5--5--5---3---/5--5--5----3-/5-5-5------3----/5------------------------|
|-3-/5--5--5---3---/5--5--5----3-/5-5-5------3----/5---------0--------------|
|-3-/5--5--5---3---/5--5--5----3-/5-5-5------3----/5------------------------|
|-3-/5--5--5---3---/5--5--5----3-/5-5-5------3----/5-----/3-----0-----------|
     went down my prayin ground         Lord I fell down on my knees

                                                  (*      *)       (*
|---------------0-3p0---0-----0-----------------0--0--0-0-0---------7--9--7-|
|---------------------3---/5~--0----------------0--2--3-3-3-0-------8--8--8-|
|-\1------------------------------\1------------0--2--3-3-3-0---------------|
|----/3-0---0------------------------/3-0---0---0--0--0-0-0-0---------------|
|---------3-------------------------------3-----------------------0---------|
|-------------0-------------------------------0---------------3s5-----------|


             *)              (*                      *)
|----7---7---7----------------7--6----7----7----7----7----------------------|
|----8---8---8----------------8--7----8----8----8----8----------------------|
|----------------\1---------------------------------------------------------|
|--------------------/3--------------------------------------------0--------|
|---------------------------------------------------------------------------|
|--------------------------0----------------------------------/3--------0---|
  ain't cried for no religion     would you bring me back my good gal please

 (*           *)                                                  (*      *)
|-----0-----0-----0---------------------/12-/12-/12---0---------0--0--0-0-0-|
|---0-----0-----0---0-------------------/12-/12-/12-0-0---------0--3--5-5-5-|
|---------------------0--3s1------------------------0-----------0--0--0-0-0-|
|----------------------------/3-0---0-----------------------0---------------|
|-3-----2-----1-----0-------------3-----------------------------------------|
|-------------------------------------0-----------------3s5---0-------------|


         (*                  *)         (*                  *)
|---------4--4--4--4----4----4-----------3--3--3--3----2----2---------------|
|---------3--3--3--3----3----3-----------2--2--2--2----1----1---------------|
|---------3--3--3--3----3----3-----------2--2--2--2----1----1---------------|
|-----0---0--0--0--0----0----0-------0---0--0--0--0----0----0--------0------|
|---------------------------------------------------------------------------|
|-3s5---0-------------------------/3---0-------------------------/3------0--|
          if you just send me my baby       won't have to worry, cry no more

                        (*   *)
|-0-/12\-0---------------7-8-7-0-------0---------------------0--------------|
|-0-/12\-0---------------8-8-8-0-/5-5~---5-------------3-/5~---5------------|
|----------\1------------------------------\1--------------------\1---------|
|-------------/3-0---0------------------------/3-0---0--------------/3-0----|
|------------------3-------------------------------3---------------------3--|
|----------------------0----------------------------------------------------|


     (*     *)              (*      *)
|---------0-----0------------0--0-0-0---------------------------------------|
|-------0-----0--------------2--3-3-3---------------------------------------|
|-----------------3s1--------2--3-3-3--3-s-5---5---5------3-s-5---5---5-----|
|-0-------------------/3-0---0--0-0-0--3-s-5---5---5------3-s-5---5---5-----|
|-----3-----2--------------------------3-s-5---5---5------3-s-5---5---5-----|
|---0----------------------0-----------3-s-5---5---5------3-s-5---5---5-----|
                                            if you just send me my baby man

                                                     (*           *)
|---------------------------------------------------------0-----0-----0-----|
|-------------------------------------------------------0-----0-----0-------|
|-3-s-5---------------------------------------------------------------------|
|-3-s-5---------------------------------------0-----------------------------|
|-3-s-5-----------------------------------------------3-----2-----1---------|
|-3-s-5-----------------------------------/3------0---------------------0---|
        Lord I won't have to worry and cry no more mhmhmhmhmhmhmhmhmhmh

    (*      *)                                                           (*
|-0--0--0-0-0---------/12-/12-/12-0-----------0--0-0-0-----0-----------0--0-|
|-0--2--3-3-3---------/12-/12-/12--0----------0--0-0-0--/5--0----------0--2-|
|-0--2--3-3-3-\1------------------------------0--0-0-0---------\1------0--2-|
|-0--0--0-0-0----/3-----------------------0---0--0-0-0------------/3---0--0-|
|---------------------------------------------------------------------------|
|-------------------0-----------------3s5---0------------------------0------|


      *)
|-0-0-0---------------------------------------------------------------------|
|-3-3-3---------------------------------------------------------------------|
|-3-3-3---------------------------------------------------------------------|
|-0-0-0-------------------------------------------------0-3-----------------|
|-------------0-------------------------------------0-3---------------------|
|-------3-s-5---------------------------------------------------------------|
                don't have to bring her to my house         Lord would you

                          (*           *)
|------------------------------0-----0-----0----------0---------/12-/12-/12-|
|----------------------------0-----0-----0---0--3-/5~--0--------/12-/12-/12-|
|--------------------------------------------------------\1-----------------|
|--------------------0--------------------------------------/3--------------|
|--------------------------3-----2-----1-----0------------------------------|
|----------------/3-----0--------------------------------------0------------|
  leave her by my door


|-0------0----------------0--------|
|--0--/5--------------------3-/5~--|
|----------\1----------------------|
|-------------/3-0---0-------------|
|------------------3---------------|
|----------------------0-----------|

Добавлено: 08.04.2012
Другие материалы по этой песне:
  • Аккорды и текст

Страница создана 08.04.2012
http://primanota.ru/johnny-winter/broke-down-engine-chords.htm
Привет, Гость.
Предлагаем пройти революционный курс по гитаре.
Подарок от PrimaNota.Ru, забирай!