PrimaNota.ru - самый крупный в мире бесплатный архив песенных текстов, аккордов, табулатур и нот


Johnny Truant - Bloodening - таба, видео

Регистрация Запомнить меня
Войти через:  Facebook Google Twitter Vk Yandex Mail.ru

Johnny Truant - Bloodening - таба, видео

Печатать
Просмотров: 126
*-palm mute
#-slide
intro...

-------------------------------------------------------|
-------------------------------------------------------|
-------------------------------------------------------|
--0-0-0-3-4---0-0-0-3-4-6---0-0-0-3-4---0-0-0-3-4-6----|
--0-0-0-3-4---0-0-0-3-4-6---0-0-0-3-4---0-0-0-3-4-6----|
--0-0-0-3-4---0-0-0-3-4-6---0-0-0-3-4---0-0-0-3-4-6----|
  * * *       * * *         * * *       * * *

i didnt get all of the song but mostly the basics..dont hate..


-----------------------7#8-------|
-----------------------6#7-------|
---------------------------------|
------0---0---0------------------|
------0---0---0------------------|
------0---0---0------------------|
Добавлено: 30.07.2012
Другие материалы по этой песне:

Страница создана 28.02.2012
http://primanota.ru/johnny-truant/bloodening-chords.htm
Привет, Гость.
Предлагаем пройти революционный курс по гитаре.
Подарок от PrimaNota.Ru, забирай!