PrimaNota.ru - самый крупный в мире бесплатный архив песенных текстов, аккордов, табулатур и нот


Johnny Thunders - Let Go - таба, видео

Регистрация Запомнить меня
Войти через:  Facebook Google Twitter Vk Yandex Mail.ru

Johnny Thunders - Let Go - таба, видео

Печатать
Просмотров: 279
----------------------------------------------------------------------------
                             Let Go - Johnny Thunders
----------------------------------------------------------------------------
Tabbed by: L.A.M.F. 77'


Tuning: Standard

  Main Riff:

e|-------------------------------------------------------------------------|
B|-------------------------------------------------------------------------|
G|-------------------------------------------------------------------------|
D|-----------2--2--4--2---2--2--4--2---2--2--4--2--------------------------|
A|---2-------0--0--0--0---0--0--0--0---0--0--0--0--------------------------|
E|---0--3h4----------------------------------------------------------------|

  Chorus Riff:

e|-------------------------------------------------------------------------|
B|-------------------------------------------------------------------------|
G|-------------------------------------------------------------------------|
D|-------------------------------------------------------------------------|
A|---x--x--x--12-12-14-12--12-12-14-12--12-12-14-12--12-12/----------------|
E|---x--x--x--10-10-10-10--10-10-10-10--10-10-10-10--10-10/----------------|

e|-------------------------------------------------------------------------|
B|-------------------------------------------------------------------------|
G|-------------------------------------------------------------------------|
D|-----------2--4-------------2/-------------------------------------------|
A|---0--3h4--------0--0--3h4-----12-12-14-12--12-12-14-12--12-12-14-12-----|
E|-------------------------------10-10-10-10--10-10-10-10--10-10-10-10/----|

e|--------------------------|
B|--------------------------|
G|--------------------------|
D|---------------------12---|
A|---14------14--------12---|
E|---12------12--12h14------|


  Solo: ( listen to song for correct rhythm)

e|---10-10------10-10------10-10------10-------5-5-5-5-5-5---5----6----7---|
B|---10-10------10-10------10-10------10-------5-5-7-5-5-5---8fb--9fb--10fb|
G|---------12fb-------12fb-------12fb----12fb------------------------------|
D|-------------------------------------------------------------------------|
A|-------------------------------------------------------------------------|
E|-------------------------------------------------------------------------|

e|----------10-10-10-10--10-10-10-10-10---5----6----7-----8-----9-----10---|
B|-(10)/---/10-10-10-10--10-10-10-10-10---8fb--9fb--10fb--11fb--12fb--13fb-|
G|-------------------------------------------------------------------------|
D|-------------------------------------------------------------------------|
A|-------------------------------------------------------------------------|
E|-------------------------------------------------------------------------|

e|--11-----10--10--10--10--------------------------------------------------|
B|--14fb/--10--10--10--10--------------------------------------------------|
G|-------------------------------------------------------------------------|
D|-------------------------------------------------------------------------|
A|-------------------------------------------------------------------------|
E|-------------------------------------------------------------------------|




| /  slide up
| \  slide down
| h  hammer-on
| p  pull-off
| ~  vibrato
| +  harmonic
| x  Mute note
============================================================================
Добавлено: 17.06.2012
Другие материалы по этой песне:
  • Аккорды и текст

Страница создана 17.06.2012
http://primanota.ru/johnny-thunders/let-go-chords.htm
Привет, Гость.
Предлагаем пройти революционный курс по гитаре.
Подарок от PrimaNota.Ru, забирай!