PrimaNota.ru - самый крупный в мире бесплатный архив песенных текстов, аккордов, табулатур и нот


Johnny Thunders - Leave Me Alone - таба, видео

Регистрация Запомнить меня
Войти через:  Facebook Google Twitter Vk Yandex Mail.ru

Johnny Thunders - Leave Me Alone - таба, видео

Печатать
Просмотров: 86
----------------------------------------------------------------------------
                             Leave Me Alone - Johnny Thunders
----------------------------------------------------------------------------
Tabbed by: L.A.M.F. 77'


Tuning: Standard

 Intro:

e|-------------------------------------------------------------------------|
B|-------------------------------------------------------------------------|
G|---9---7---9-------------------------------------------------------------|
D|---9---7---9-------------------------------------------------------------|
A|---7---5---7-------------------------------------------------------------|
E|---0-------0-------------------------------------------------------------|
               Play intro riff before each verse and before the solo
 Verse:

e|-------------------------------------------------------------------------|
B|-------------------------------------------------------------------------|
G|-------------------------------------------------------------------------|
D|-------------------------------------------------------------------------|
A|---10--10--7---7---2---2---4---4---2---2---4---4-------------------------|
E|---8---8---5---5---0---0---0---0---0---0---0---0-------------------------|

 1st Solo: version from the album "So Alone" 2nd solo is basically the same except for 
in the rhythm

e|-------------------------------------------------------------------------|
B|-----------12---12---12---12---12---12---12---12---12--12----------------|
G|-----------14b--14b--14b--14b--14b--14b--14b--14b--14b-14b--14--12~------|
D|-------------------------------------------------------------------------|
A|---5---7-----------------------------------------------------------------|
E|---3---5-----------------------------------------------------------------|

e|-------------------------------------------------------------------------|
B|---9/17--9/17--9/17--9/17--9/17--17--17--17--20--------------------------|
G|-------------------------------------------------------------------------|
D|-------------------------------------------------------------------------|
A|-------------------------------------------------------------------------|
E|-------------------------------------------------------------------------|
Добавлено: 27.06.2012
Другие материалы по этой песне:
  • Аккорды и текст

Страница создана 27.06.2012
http://primanota.ru/johnny-thunders/leave-me-alone-chords.htm
Привет, Гость.
Предлагаем пройти революционный курс по гитаре.
Подарок от PrimaNota.Ru, забирай!