PrimaNota.ru - самый крупный в мире бесплатный архив песенных текстов, аккордов, табулатур и нот


Johnny Thunders - Dead Or Alive - таба, видео

Регистрация Запомнить меня
Войти через:  Facebook Google Twitter Vk Yandex Mail.ru

Johnny Thunders - Dead Or Alive - таба, видео

Печатать
Просмотров: 141
Уроки эстрадного вокала в Санкт-Петербурге
-----------------------------------------------------------------------
                             Dead or Alive – Johnny Thunders
-----------------------------------------------------------------------
Tabbed by: L.A.M.F. 77'


Tuning: Standard

  Intro/bridge:

e|--------------------------------------------------------------------|
B|--------------------------------------------------------------------|
G|---12--12---10------------------------------------------------------|
D|---12--12---10---10--12--12--12--12---------------------------------|
A|---10--10---8----10--12--12--12--12---------------------------------|
E|-----------------8---10--10--10—-10/--------------------------------|

  Verse: Guitar 1

e|--------------------------------------------------------------------|
B|--------------------------------------------------------------------|
G|--------------------------------------------------------------------|
D|--------------------------------------------------------------------|
A|---5--5--7--5---5--5--7--5------2--3--5---6--6--8--6---6--6--8--6---|
E|---3--3--3--3---3--3--3--3---3------------4--4--4--4---4--4--4--4---|

e|--------------------------------------------------------------------|
B|--------------------------------------------------------------------|
G|--------------------------------------------------------------------|
D|-----------------5--5--7--5---5--5--7--5------2--3--5---------------|
A|-------3--4--6---3--3--3--3---3--3--3--3---3------------------------|
E|---4----------------------------------------------------------------|

e|--------------------------------------------------------------------|
B|--------------------------------------------------------------------|
G|--------------------------------------------------------------------|
D|---7--7--9--7---7--7--9--7------------------------------------------|
A|---5--5--5--5---5--5--5--5------------------------------------------|
E|--------------------------------------------------------------------|

  Guitar 2

e|---3---4---4/5---3/5----3---4---4---5-------------------------------|
B|---3---4---4/5---5/7----3---4---4---5-------------------------------|
G|---4---5---5/6---5/7----4---5---5---6-------------------------------|
D|-------------------------------------------4----7-------------------|
A|----------------------------------------5---------5\----------------|
E|--------------------------------------------------------------------|








  Chorus: Guitar 1


e|--------------------------------------------------------------------|
B|--------------------------------------------------------------------|
G|--------------------------------------------------------------------|
D|---5--5--7--5---5--5--7---7--7--9--7---9p7--7-----------------------|
A|---3--3--3--3---3--3--3---5--5--5--5---5----5-----------------------|
E|--------------------------------------------------------------------|


 Guitar 2: slightly palm muted

e|--------------------------------------------------------------------|
B|--------------------------------------------------------------------|
G|--------------------------------------------------------------------|
D|---------2--2--3--3--5---------4--4--5--5--7------------------------|
A|---3--3------------------5--5---------------------------------------|
E|--------------------------------------------------------------------|

  Guitar Solo: 

e|-------------------------------------------------------------------------|
B|---3----3----------------------------------4-------4-------4------4------|
G|---5fb-----5b--5b (5)-(5)-(5)--5--3---6fb-----6fb-----6fb-----6fb----6fb-|
D|-------------------------------------------------------------------------|
A|-------------------------------------------------------------------------|
E|-------------------------------------------------------------------------|


e|--------------------------8---------8--------8--------8------------------|
B|--------------------------8---------8--------8--------8------------------|
G|---(6)r--4-----------10fb-----10fb-----10fb-----10fb-----10fbr--8--------|
D|-------------------------------------------------------------------------|
A|-------------------------------------------------------------------------|
E|-------------------------------------------------------------------------|

e|---------10-------10--------10-------10-------10--------10/--------------|
B|---------10-------10--------10-------10-------10--------10/--------------|
G|---12fb------12fb-----12fb------12fb-----12fb-----12fb-------------------|
D|-------------------------------------------------------------------------|
A|-------------------------------------------------------------------------|
E|-------------------------------------------------------------------------|


e|-------------------------------------------------------------------------|
B|---3---------------------------------------------4-------4-------4-------|
G|---5fb--(5)-(5)-(5)-(5)-(5)-(5)-(5)r---3/---6fb-----6fb-----6fb-----6fb--|
D|-------------------------------------------------------------------------|
A|-------------------------------------------------------------------------|
E|-------------------------------------------------------------------------|

e|-------------------------------8----------8-----------8----------8-------|
B|-------------------------8-----8----8-----8----8------8----8-----8-------|
G|---(6)-(6)-(6)-(6)-(6)---10fb-------10fb-------10fb--------10fb----------|
D|-------------------------------------------------------------------------|
A|-------------------------------------------------------------------------|
E|-------------------------------------------------------------------------|


e|---------8----------8----------------------------------------------------|
B|---8-----8----8-----8----------------------------------------------------|
G|---10fb-------10fb------12~~~--14~~--12~~/-------------------------------|
D|-------------------------------------------------------------------------|
A|-------------------------------------------------------------------------|
E|-------------------------------------------------------------------------|


|(5)pick note while bent
| /  slide up
| \  slide down
| h  hammer-on
| p  pull-off
| ~  vibrato
| +  harmonic
| x  Mute note
=======================================================================

Добавлено: 23.04.2012
Другие материалы по этой песне:
  • Аккорды и текст

Страница создана 23.04.2012
http://primanota.ru/johnny-thunders/dead-or-alive-chords.htm
Привет, Гость.
Предлагаем пройти революционный курс по гитаре.
Подарок от PrimaNota.Ru, забирай!